ISO-10303-21;
HEADER;
/* Generated by software containing ST-Developer
 * from STEP Tools, Inc. (www.steptools.com) 
 */
/* OPTION: using custom schema-name function */

FILE_DESCRIPTION(
/* description */ (''),
/* implementation_level */ '2;1');

FILE_NAME(
/* name */ 'n 01 060 000x 1nxc001-01.stp',
/* time_stamp */ '2021-04-20T13:19:51+02:00',
/* author */ (''),
/* organization */ (''),
/* preprocessor_version */ 'ST-DEVELOPER v16.7',
/* originating_system */ 'SIEMENS PLM Software NX 12.0',
/* authorisation */ '');

FILE_SCHEMA (('AUTOMOTIVE_DESIGN { 1 0 10303 214 3 1 1 1 }'));
ENDSEC;

DATA;
#10=SHAPE_REPRESENTATION_RELATIONSHIP('None',
'relationship between n 01 060 000x 1nxc001-01-None and n 01 060 000x 
1nxc001-01-None',#22,#11);
#11=ADVANCED_BREP_SHAPE_REPRESENTATION('n 01 060 000x 1nxc001-01-None',
(#117),#385);
#12=SHAPE_DEFINITION_REPRESENTATION(#13,#22);
#13=PRODUCT_DEFINITION_SHAPE('','',#14);
#14=PRODUCT_DEFINITION(' ','',#16,#15);
#15=PRODUCT_DEFINITION_CONTEXT('part definition',#21,'design');
#16=PRODUCT_DEFINITION_FORMATION_WITH_SPECIFIED_SOURCE(' ',' ',#18,
 .NOT_KNOWN.);
#17=PRODUCT_RELATED_PRODUCT_CATEGORY('part','',(#18));
#18=PRODUCT('n 01 060 000x 1nxc001-01','n 01 060 000x 1nxc001-01',' ',(#19));
#19=PRODUCT_CONTEXT(' ',#21,'mechanical');
#20=APPLICATION_PROTOCOL_DEFINITION('international standard',
'automotive_design',2010,#21);
#21=APPLICATION_CONTEXT(
'core data for automotive mechanical design processes');
#22=SHAPE_REPRESENTATION('n 01 060 000x 1nxc001-01-None',(#245),#385);
#23=OVER_RIDING_STYLED_ITEM('',(#38),#128,#36);
#24=OVER_RIDING_STYLED_ITEM('',(#39),#129,#36);
#25=OVER_RIDING_STYLED_ITEM('',(#40),#130,#36);
#26=OVER_RIDING_STYLED_ITEM('',(#41),#131,#36);
#27=OVER_RIDING_STYLED_ITEM('',(#42),#132,#36);
#28=OVER_RIDING_STYLED_ITEM('',(#43),#133,#36);
#29=OVER_RIDING_STYLED_ITEM('',(#44),#134,#36);
#30=OVER_RIDING_STYLED_ITEM('',(#45),#135,#36);
#31=OVER_RIDING_STYLED_ITEM('',(#46),#136,#36);
#32=OVER_RIDING_STYLED_ITEM('',(#47),#137,#36);
#33=OVER_RIDING_STYLED_ITEM('',(#48),#138,#36);
#34=OVER_RIDING_STYLED_ITEM('',(#49),#139,#36);
#35=PRESENTATION_LAYER_ASSIGNMENT('1','Layer 1',(#117));
#36=STYLED_ITEM('',(#37),#117);
#37=PRESENTATION_STYLE_ASSIGNMENT((#50));
#38=PRESENTATION_STYLE_ASSIGNMENT((#51));
#39=PRESENTATION_STYLE_ASSIGNMENT((#52));
#40=PRESENTATION_STYLE_ASSIGNMENT((#53));
#41=PRESENTATION_STYLE_ASSIGNMENT((#54));
#42=PRESENTATION_STYLE_ASSIGNMENT((#55));
#43=PRESENTATION_STYLE_ASSIGNMENT((#56));
#44=PRESENTATION_STYLE_ASSIGNMENT((#57));
#45=PRESENTATION_STYLE_ASSIGNMENT((#58));
#46=PRESENTATION_STYLE_ASSIGNMENT((#59));
#47=PRESENTATION_STYLE_ASSIGNMENT((#60));
#48=PRESENTATION_STYLE_ASSIGNMENT((#61));
#49=PRESENTATION_STYLE_ASSIGNMENT((#62));
#50=SURFACE_STYLE_USAGE(.BOTH.,#63);
#51=SURFACE_STYLE_USAGE(.BOTH.,#64);
#52=SURFACE_STYLE_USAGE(.BOTH.,#65);
#53=SURFACE_STYLE_USAGE(.BOTH.,#66);
#54=SURFACE_STYLE_USAGE(.BOTH.,#67);
#55=SURFACE_STYLE_USAGE(.BOTH.,#68);
#56=SURFACE_STYLE_USAGE(.BOTH.,#69);
#57=SURFACE_STYLE_USAGE(.BOTH.,#70);
#58=SURFACE_STYLE_USAGE(.BOTH.,#71);
#59=SURFACE_STYLE_USAGE(.BOTH.,#72);
#60=SURFACE_STYLE_USAGE(.BOTH.,#73);
#61=SURFACE_STYLE_USAGE(.BOTH.,#74);
#62=SURFACE_STYLE_USAGE(.BOTH.,#75);
#63=SURFACE_SIDE_STYLE('',(#76));
#64=SURFACE_SIDE_STYLE('',(#77));
#65=SURFACE_SIDE_STYLE('',(#78));
#66=SURFACE_SIDE_STYLE('',(#79));
#67=SURFACE_SIDE_STYLE('',(#80));
#68=SURFACE_SIDE_STYLE('',(#81));
#69=SURFACE_SIDE_STYLE('',(#82));
#70=SURFACE_SIDE_STYLE('',(#83));
#71=SURFACE_SIDE_STYLE('',(#84));
#72=SURFACE_SIDE_STYLE('',(#85));
#73=SURFACE_SIDE_STYLE('',(#86));
#74=SURFACE_SIDE_STYLE('',(#87));
#75=SURFACE_SIDE_STYLE('',(#88));
#76=SURFACE_STYLE_FILL_AREA(#89);
#77=SURFACE_STYLE_FILL_AREA(#90);
#78=SURFACE_STYLE_FILL_AREA(#91);
#79=SURFACE_STYLE_FILL_AREA(#92);
#80=SURFACE_STYLE_FILL_AREA(#93);
#81=SURFACE_STYLE_FILL_AREA(#94);
#82=SURFACE_STYLE_FILL_AREA(#95);
#83=SURFACE_STYLE_FILL_AREA(#96);
#84=SURFACE_STYLE_FILL_AREA(#97);
#85=SURFACE_STYLE_FILL_AREA(#98);
#86=SURFACE_STYLE_FILL_AREA(#99);
#87=SURFACE_STYLE_FILL_AREA(#100);
#88=SURFACE_STYLE_FILL_AREA(#101);
#89=FILL_AREA_STYLE('',(#102));
#90=FILL_AREA_STYLE('',(#103));
#91=FILL_AREA_STYLE('',(#104));
#92=FILL_AREA_STYLE('',(#105));
#93=FILL_AREA_STYLE('',(#106));
#94=FILL_AREA_STYLE('',(#107));
#95=FILL_AREA_STYLE('',(#108));
#96=FILL_AREA_STYLE('',(#109));
#97=FILL_AREA_STYLE('',(#110));
#98=FILL_AREA_STYLE('',(#111));
#99=FILL_AREA_STYLE('',(#112));
#100=FILL_AREA_STYLE('',(#113));
#101=FILL_AREA_STYLE('',(#114));
#102=FILL_AREA_STYLE_COLOUR('',#115);
#103=FILL_AREA_STYLE_COLOUR('',#116);
#104=FILL_AREA_STYLE_COLOUR('',#116);
#105=FILL_AREA_STYLE_COLOUR('',#116);
#106=FILL_AREA_STYLE_COLOUR('',#116);
#107=FILL_AREA_STYLE_COLOUR('',#116);
#108=FILL_AREA_STYLE_COLOUR('',#116);
#109=FILL_AREA_STYLE_COLOUR('',#116);
#110=FILL_AREA_STYLE_COLOUR('',#116);
#111=FILL_AREA_STYLE_COLOUR('',#116);
#112=FILL_AREA_STYLE_COLOUR('',#116);
#113=FILL_AREA_STYLE_COLOUR('',#116);
#114=FILL_AREA_STYLE_COLOUR('',#116);
#115=COLOUR_RGB('Medium Steel',0.596063172350652,0.666666666666667,0.686259250782025);
#116=COLOUR_RGB('Deep Orange',1.,0.4,0.);
#117=MANIFOLD_SOLID_BREP('',#118);
#118=CLOSED_SHELL('',(#128,#129,#130,#131,#132,#133,#134,#135,#136,#137,
#138,#139));
#119=FACE_OUTER_BOUND('',#186,.T.);
#120=(
BOUNDED_SURFACE()
B_SPLINE_SURFACE(2,2,((#337,#338,#339,#340,#341,#342,#343),(#344,#345,#346,
#347,#348,#349,#350),(#351,#352,#353,#354,#355,#356,#357),(#358,#359,#360,
#361,#362,#363,#364),(#365,#366,#367,#368,#369,#370,#371)),
 .UNSPECIFIED.,.F.,.T.,.F.)
B_SPLINE_SURFACE_WITH_KNOTS((3,2,3),(1,2,2,2,2,1),(0.,0.5,1.),(-0.333333333333335,
0.,0.333333333333333,0.666666666666665,1.,1.33333333333333),
 .UNSPECIFIED.)
GEOMETRIC_REPRESENTATION_ITEM()
RATIONAL_B_SPLINE_SURFACE(((1.,0.5,1.,0.5,1.,0.5,1.),(0.853553390593274,
0.426776695296637,0.853553390593274,0.426776695296637,0.853553390593274,
0.426776695296637,0.853553390593274),(0.853553390593274,0.426776695296637,
0.853553390593274,0.426776695296637,0.853553390593274,0.426776695296637,
0.853553390593274),(0.853553390593274,0.426776695296637,0.853553390593274,
0.426776695296637,0.853553390593274,0.426776695296637,0.853553390593274),
(1.,0.5,1.,0.5,1.,0.5,1.)))
REPRESENTATION_ITEM('')
SURFACE()
);
#121=PLANE('',#255);
#122=PLANE('',#259);
#123=PLANE('',#264);
#124=PLANE('',#266);
#125=CONICAL_SURFACE('',#250,0.,60.0000000000001);
#126=CONICAL_SURFACE('',#267,1.33137084989847,45.);
#127=VERTEX_LOOP('',#214);
#128=ADVANCED_FACE('',(#145,#146),#140,.T.);
#129=ADVANCED_FACE('',(#147,#148),#125,.F.);
#130=ADVANCED_FACE('',(#149,#150),#141,.F.);
#131=ADVANCED_FACE('',(#151,#152),#121,.T.);
#132=ADVANCED_FACE('',(#153,#154),#142,.T.);
#133=ADVANCED_FACE('',(#155,#156),#120,.T.);
#134=ADVANCED_FACE('',(#157,#158),#122,.T.);
#135=ADVANCED_FACE('',(#159,#160),#143,.T.);
#136=ADVANCED_FACE('',(#161,#162),#144,.T.);
#137=ADVANCED_FACE('',(#163,#164),#123,.T.);
#138=ADVANCED_FACE('',(#119),#124,.T.);
#139=ADVANCED_FACE('',(#165,#166),#126,.T.);
#140=CYLINDRICAL_SURFACE('',#248,3.);
#141=CYLINDRICAL_SURFACE('',#252,3.25);
#142=CYLINDRICAL_SURFACE('',#257,6.45);
#143=CYLINDRICAL_SURFACE('',#261,3.);
#144=CYLINDRICAL_SURFACE('',#263,5.);
#145=FACE_BOUND('',#167,.T.);
#146=FACE_BOUND('',#168,.T.);
#147=FACE_BOUND('',#169,.T.);
#148=FACE_BOUND('',#127,.T.);
#149=FACE_BOUND('',#170,.T.);
#150=FACE_BOUND('',#171,.T.);
#151=FACE_BOUND('',#172,.T.);
#152=FACE_BOUND('',#173,.T.);
#153=FACE_BOUND('',#174,.T.);
#154=FACE_BOUND('',#175,.T.);
#155=FACE_BOUND('',#176,.T.);
#156=FACE_BOUND('',#177,.T.);
#157=FACE_BOUND('',#178,.T.);
#158=FACE_BOUND('',#179,.T.);
#159=FACE_BOUND('',#180,.T.);
#160=FACE_BOUND('',#181,.T.);
#161=FACE_BOUND('',#182,.T.);
#162=FACE_BOUND('',#183,.T.);
#163=FACE_BOUND('',#184,.T.);
#164=FACE_BOUND('',#185,.T.);
#165=FACE_BOUND('',#187,.T.);
#166=FACE_BOUND('',#188,.T.);
#167=EDGE_LOOP('',(#189));
#168=EDGE_LOOP('',(#190));
#169=EDGE_LOOP('',(#191));
#170=EDGE_LOOP('',(#192));
#171=EDGE_LOOP('',(#193));
#172=EDGE_LOOP('',(#194));
#173=EDGE_LOOP('',(#195));
#174=EDGE_LOOP('',(#196));
#175=EDGE_LOOP('',(#197));
#176=EDGE_LOOP('',(#198));
#177=EDGE_LOOP('',(#199));
#178=EDGE_LOOP('',(#200));
#179=EDGE_LOOP('',(#201));
#180=EDGE_LOOP('',(#202));
#181=EDGE_LOOP('',(#203));
#182=EDGE_LOOP('',(#204));
#183=EDGE_LOOP('',(#205));
#184=EDGE_LOOP('',(#206));
#185=EDGE_LOOP('',(#207));
#186=EDGE_LOOP('',(#208));
#187=EDGE_LOOP('',(#209));
#188=EDGE_LOOP('',(#210));
#189=ORIENTED_EDGE('',*,*,#223,.T.);
#190=ORIENTED_EDGE('',*,*,#224,.T.);
#191=ORIENTED_EDGE('',*,*,#225,.F.);
#192=ORIENTED_EDGE('',*,*,#226,.T.);
#193=ORIENTED_EDGE('',*,*,#225,.T.);
#194=ORIENTED_EDGE('',*,*,#227,.F.);
#195=ORIENTED_EDGE('',*,*,#228,.T.);
#196=ORIENTED_EDGE('',*,*,#228,.F.);
#197=ORIENTED_EDGE('',*,*,#229,.T.);
#198=ORIENTED_EDGE('',*,*,#229,.F.);
#199=ORIENTED_EDGE('',*,*,#230,.F.);
#200=ORIENTED_EDGE('',*,*,#223,.F.);
#201=ORIENTED_EDGE('',*,*,#230,.T.);
#202=ORIENTED_EDGE('',*,*,#224,.F.);
#203=ORIENTED_EDGE('',*,*,#231,.T.);
#204=ORIENTED_EDGE('',*,*,#227,.T.);
#205=ORIENTED_EDGE('',*,*,#232,.F.);
#206=ORIENTED_EDGE('',*,*,#226,.F.);
#207=ORIENTED_EDGE('',*,*,#232,.T.);
#208=ORIENTED_EDGE('',*,*,#233,.T.);
#209=ORIENTED_EDGE('',*,*,#233,.F.);
#210=ORIENTED_EDGE('',*,*,#231,.F.);
#211=VERTEX_POINT('',#316);
#212=VERTEX_POINT('',#318);
#213=VERTEX_POINT('',#321);
#214=VERTEX_POINT('',#322);
#215=VERTEX_POINT('',#325);
#216=VERTEX_POINT('',#328);
#217=VERTEX_POINT('',#330);
#218=VERTEX_POINT('',#333);
#219=VERTEX_POINT('',#336);
#220=VERTEX_POINT('',#374);
#221=VERTEX_POINT('',#377);
#222=VERTEX_POINT('',#381);
#223=EDGE_CURVE('',#211,#211,#234,.T.);
#224=EDGE_CURVE('',#212,#212,#235,.T.);
#225=EDGE_CURVE('',#213,#213,#236,.T.);
#226=EDGE_CURVE('',#215,#215,#237,.T.);
#227=EDGE_CURVE('',#216,#216,#238,.T.);
#228=EDGE_CURVE('',#217,#217,#239,.T.);
#229=EDGE_CURVE('',#218,#218,#240,.T.);
#230=EDGE_CURVE('',#219,#219,#241,.T.);
#231=EDGE_CURVE('',#220,#220,#242,.T.);
#232=EDGE_CURVE('',#221,#221,#243,.T.);
#233=EDGE_CURVE('',#222,#222,#244,.T.);
#234=CIRCLE('',#246,3.);
#235=CIRCLE('',#247,3.);
#236=CIRCLE('',#249,3.25);
#237=CIRCLE('',#251,3.25);
#238=CIRCLE('',#253,5.);
#239=CIRCLE('',#254,6.45);
#240=CIRCLE('',#256,6.45);
#241=CIRCLE('',#258,5.45);
#242=CIRCLE('',#260,3.);
#243=CIRCLE('',#262,5.);
#244=CIRCLE('',#265,1.33137084989847);
#245=AXIS2_PLACEMENT_3D('',#314,#268,#269);
#246=AXIS2_PLACEMENT_3D('',#315,#270,#271);
#247=AXIS2_PLACEMENT_3D('',#317,#272,#273);
#248=AXIS2_PLACEMENT_3D('',#319,#274,#275);
#249=AXIS2_PLACEMENT_3D('',#320,#276,#277);
#250=AXIS2_PLACEMENT_3D('',#323,#278,#279);
#251=AXIS2_PLACEMENT_3D('',#324,#280,#281);
#252=AXIS2_PLACEMENT_3D('',#326,#282,#283);
#253=AXIS2_PLACEMENT_3D('',#327,#284,#285);
#254=AXIS2_PLACEMENT_3D('',#329,#286,#287);
#255=AXIS2_PLACEMENT_3D('',#331,#288,#289);
#256=AXIS2_PLACEMENT_3D('',#332,#290,#291);
#257=AXIS2_PLACEMENT_3D('',#334,#292,#293);
#258=AXIS2_PLACEMENT_3D('',#335,#294,#295);
#259=AXIS2_PLACEMENT_3D('',#372,#296,#297);
#260=AXIS2_PLACEMENT_3D('',#373,#298,#299);
#261=AXIS2_PLACEMENT_3D('',#375,#300,#301);
#262=AXIS2_PLACEMENT_3D('',#376,#302,#303);
#263=AXIS2_PLACEMENT_3D('',#378,#304,#305);
#264=AXIS2_PLACEMENT_3D('',#379,#306,#307);
#265=AXIS2_PLACEMENT_3D('',#380,#308,#309);
#266=AXIS2_PLACEMENT_3D('',#382,#310,#311);
#267=AXIS2_PLACEMENT_3D('',#383,#312,#313);
#268=DIRECTION('',(0.,0.,1.));
#269=DIRECTION('',(1.,0.,0.));
#270=DIRECTION('',(1.,3.51436609374757E-15,2.34291072916505E-15));
#271=DIRECTION('',(-3.46944695195361E-15,1.,0.));
#272=DIRECTION('',(-1.,-3.51436609374757E-15,-2.34291072916505E-15));
#273=DIRECTION('',(-4.62592926927149E-15,1.,0.));
#274=DIRECTION('',(1.,3.51436609374757E-15,2.34291072916505E-15));
#275=DIRECTION('',(-2.31296463463574E-15,3.46944695195361E-15,1.));
#276=DIRECTION('',(1.,3.51436609374759E-15,6.59121311931235E-15));
#277=DIRECTION('',(-6.4051328343759E-15,0.,1.));
#278=DIRECTION('',(-1.,-3.51436609374759E-15,-6.59121311931235E-15));
#279=DIRECTION('',(-6.59215645925864E-15,3.44731123256886E-15,1.));
#280=DIRECTION('',(-1.,-3.51436609374757E-15,-2.34291072916505E-15));
#281=DIRECTION('',(3.51436609374757E-15,-1.,0.));
#282=DIRECTION('',(1.,3.51436609374757E-15,2.76337694564142E-15));
#283=DIRECTION('',(-2.73552548134804E-15,3.20256641718795E-15,1.));
#284=DIRECTION('',(-1.,-3.51436609374757E-15,-2.34291072916505E-15));
#285=DIRECTION('',(3.46944695195361E-15,-1.,0.));
#286=DIRECTION('',(-1.,-3.30732876747889E-15,-2.54213248925426E-15));
#287=DIRECTION('',(-2.15159500896348E-15,4.30319001792696E-15,1.));
#288=DIRECTION('',(-1.,-3.51436609374757E-15,-2.34291072916505E-15));
#289=DIRECTION('',(-2.34187669256869E-15,3.51454976232901E-15,1.));
#290=DIRECTION('',(-1.,-3.51436609374757E-15,-2.34291072916505E-15));
#291=DIRECTION('',(-2.15159500896348E-15,3.22739251344522E-15,1.));
#292=DIRECTION('',(1.,3.15296536958574E-15,1.89143981223865E-15));
#293=DIRECTION('',(-2.15159500896348E-15,3.76529126568609E-15,1.));
#294=DIRECTION('',(1.,3.51436609374757E-15,2.34291072916505E-15));
#295=DIRECTION('',(-2.54638308400265E-15,2.54638308400265E-15,1.));
#296=DIRECTION('',(1.,3.51436609374757E-15,2.34291072916505E-15));
#297=DIRECTION('',(-2.34187669256869E-15,3.51108031537706E-15,1.));
#298=DIRECTION('',(-1.,-3.51436609374757E-15,-2.1564657037259E-15));
#299=DIRECTION('',(4.62592926927149E-15,-1.,0.));
#300=DIRECTION('',(1.,3.51436609374757E-15,2.34291072916505E-15));
#301=DIRECTION('',(-2.31296463463574E-15,3.46944695195361E-15,1.));
#302=DIRECTION('',(-1.,-3.51436609374757E-15,-2.28167897432476E-15));
#303=DIRECTION('',(-2.28167897432477E-15,4.16333634234434E-15,1.));
#304=DIRECTION('',(1.,3.76218373317283E-15,2.13196311081822E-15));
#305=DIRECTION('',(-2.16840434497101E-15,3.46944695195361E-15,1.));
#306=DIRECTION('',(-1.,-3.51436609374757E-15,-2.34291072916505E-15));
#307=DIRECTION('',(-2.34291072916506E-15,3.51454976232901E-15,1.));
#308=DIRECTION('',(1.,3.51436609374757E-15,2.34291072916505E-15));
#309=DIRECTION('',(0.,2.60592077122477E-15,1.));
#310=DIRECTION('',(1.,3.51436609374757E-15,2.34291072916505E-15));
#311=DIRECTION('',(-2.34534613952064E-15,3.51454976232901E-15,1.));
#312=DIRECTION('',(-1.,-3.51436609374757E-15,-2.1564657037259E-15));
#313=DIRECTION('',(-2.06504104790933E-15,3.4197911313532E-15,1.));
#314=CARTESIAN_POINT('',(0.,0.,0.));
#315=CARTESIAN_POINT('',(19.2,24.5,1.55551690911779E-13));
#316=CARTESIAN_POINT('',(19.2,27.5,1.55551690911779E-13));
#317=CARTESIAN_POINT('',(44.6,24.5000000000001,2.15061623432571E-13));
#318=CARTESIAN_POINT('',(44.6,27.5000000000001,2.15061623432571E-13));
#319=CARTESIAN_POINT('',(25.5464101615137,24.5,1.70420763370871E-13));
#320=CARTESIAN_POINT('',(16.5381197846483,24.5,1.4391462630617E-13));
#321=CARTESIAN_POINT('',(16.5381197846483,24.5,3.25000000000014));
#322=CARTESIAN_POINT('',(18.4145081595146,24.5,1.56282301979514E-13));
#323=CARTESIAN_POINT('',(18.4145081595146,24.5,1.56282301979514E-13));
#324=CARTESIAN_POINT('',(2.16840434497101E-16,24.4999999999999,1.06181741607938E-13));
#325=CARTESIAN_POINT('',(1.16385302391767E-14,21.2499999999999,1.06181741607938E-13));
#326=CARTESIAN_POINT('',(1.8,24.4999999999999,1.11155820110092E-13));
#327=CARTESIAN_POINT('',(18.,24.5,1.51486297959E-13));
#328=CARTESIAN_POINT('',(18.,19.5,1.51486297959E-13));
#329=CARTESIAN_POINT('',(18.,24.5,1.47102346739856E-13));
#330=CARTESIAN_POINT('',(18.,24.5,6.45000000000015));
#331=CARTESIAN_POINT('',(18.,17.405,-7.09499999999982));
#332=CARTESIAN_POINT('',(18.2,24.5,1.53642461051608E-13));
#333=CARTESIAN_POINT('',(18.2,24.5,6.45000000000015));
#334=CARTESIAN_POINT('',(18.,24.5,1.54108961281302E-13));
#335=CARTESIAN_POINT('',(19.2,24.5,1.55118010042784E-13));
#336=CARTESIAN_POINT('',(19.2,24.5,5.45000000000016));
#337=CARTESIAN_POINT('',(18.2,24.5,6.45000000000015));
#338=CARTESIAN_POINT('',(18.1999999999999,35.6717277088193,6.45000000000011));
#339=CARTESIAN_POINT('',(18.2,30.0858638544096,-3.22499999999987));
#340=CARTESIAN_POINT('',(18.2,24.4999999999999,-12.8999999999998));
#341=CARTESIAN_POINT('',(18.2,18.9141361455903,-3.22499999999983));
#342=CARTESIAN_POINT('',(18.2,13.3282722911807,6.45000000000019));
#343=CARTESIAN_POINT('',(18.2,24.5,6.45000000000015));
#344=CARTESIAN_POINT('',(18.6142135623731,24.5,6.45000000000015));
#345=CARTESIAN_POINT('',(18.614213562373,35.6717277088193,6.45000000000012));
#346=CARTESIAN_POINT('',(18.6142135623731,30.0858638544096,-3.22499999999986));
#347=CARTESIAN_POINT('',(18.6142135623731,24.4999999999999,-12.8999999999998));
#348=CARTESIAN_POINT('',(18.6142135623731,18.9141361455904,-3.22499999999983));
#349=CARTESIAN_POINT('',(18.6142135623731,13.3282722911808,6.45000000000019));
#350=CARTESIAN_POINT('',(18.6142135623731,24.5,6.45000000000015));
#351=CARTESIAN_POINT('',(18.9071067811865,24.5,6.15710678118669));
#352=CARTESIAN_POINT('',(18.9071067811865,35.164421772642,6.15710678118667));
#353=CARTESIAN_POINT('',(18.9071067811865,29.832210886321,-3.07855339059313));
#354=CARTESIAN_POINT('',(18.9071067811866,24.5,-12.3142135623729));
#355=CARTESIAN_POINT('',(18.9071067811866,19.167789113679,-3.0785533905931));
#356=CARTESIAN_POINT('',(18.9071067811866,13.835578227358,6.15710678118673));
#357=CARTESIAN_POINT('',(18.9071067811865,24.5,6.15710678118669));
#358=CARTESIAN_POINT('',(19.2,24.5,5.86421356237324));
#359=CARTESIAN_POINT('',(19.2,34.6571158364647,5.86421356237322));
#360=CARTESIAN_POINT('',(19.2,29.5785579182323,-2.93210678118641));
#361=CARTESIAN_POINT('',(19.2,24.5,-11.728427124746));
#362=CARTESIAN_POINT('',(19.2,19.4214420817676,-2.93210678118638));
#363=CARTESIAN_POINT('',(19.2,14.3428841635353,5.86421356237328));
#364=CARTESIAN_POINT('',(19.2,24.5,5.86421356237324));
#365=CARTESIAN_POINT('',(19.2,24.5,5.45000000000016));
#366=CARTESIAN_POINT('',(19.1999999999999,33.9396769012504,5.45000000000012));
#367=CARTESIAN_POINT('',(19.2,29.2198384506252,-2.72499999999986));
#368=CARTESIAN_POINT('',(19.2,24.5,-10.8999999999998));
#369=CARTESIAN_POINT('',(19.2,19.7801615493748,-2.72499999999983));
#370=CARTESIAN_POINT('',(19.2,15.0603230987496,5.45000000000019));
#371=CARTESIAN_POINT('',(19.2,24.5,5.45000000000016));
#372=CARTESIAN_POINT('',(19.2,31.595,-7.09499999999987));
#373=CARTESIAN_POINT('',(47.3313708498985,24.5000000000001,2.21877825796809E-13));
#374=CARTESIAN_POINT('',(47.3313708498985,21.5000000000001,2.21877825796809E-13));
#375=CARTESIAN_POINT('',(25.5464101615137,24.5,1.70420763370871E-13));
#376=CARTESIAN_POINT('',(3.06158774201454E-16,24.4999999999999,1.09266762304827E-13));
#377=CARTESIAN_POINT('',(-1.11022360974224E-14,24.4999999999999,5.00000000000011));
#378=CARTESIAN_POINT('',(3.,24.4999999999999,1.19506851296727E-13));
#379=CARTESIAN_POINT('',(3.22150225260194E-14,18.9999999999999,-5.49999999999987));
#380=CARTESIAN_POINT('',(49.,24.5000000000001,2.25188718013144E-13));
#381=CARTESIAN_POINT('',(49.,24.5000000000001,1.3313708498987));
#382=CARTESIAN_POINT('',(49.,25.9645079348884,-1.4645079348881));
#383=CARTESIAN_POINT('',(49.,24.5000000000001,2.25476167331241E-13));
#384=MECHANICAL_DESIGN_GEOMETRIC_PRESENTATION_REPRESENTATION('',(#36,#23,
#24,#25,#26,#27,#28,#29,#30,#31,#32,#33,#34),#385);
#385=(
GEOMETRIC_REPRESENTATION_CONTEXT(3)
GLOBAL_UNCERTAINTY_ASSIGNED_CONTEXT((#386))
GLOBAL_UNIT_ASSIGNED_CONTEXT((#392,#388,#387))
REPRESENTATION_CONTEXT('n 01 060 000x 1nxc001-01',
'TOP_LEVEL_ASSEMBLY_PART')
);
#386=UNCERTAINTY_MEASURE_WITH_UNIT(LENGTH_MEASURE(2.E-5),#392,
'DISTANCE_ACCURACY_VALUE','Maximum Tolerance applied to model');
#387=(
NAMED_UNIT(*)
SI_UNIT($,.STERADIAN.)
SOLID_ANGLE_UNIT()
);
#388=(
CONVERSION_BASED_UNIT('DEGREE',#390)
NAMED_UNIT(#389)
PLANE_ANGLE_UNIT()
);
#389=DIMENSIONAL_EXPONENTS(0.,0.,0.,0.,0.,0.,0.);
#390=PLANE_ANGLE_MEASURE_WITH_UNIT(PLANE_ANGLE_MEASURE(0.0174532925),#391);
#391=(
NAMED_UNIT(*)
PLANE_ANGLE_UNIT()
SI_UNIT($,.RADIAN.)
);
#392=(
LENGTH_UNIT()
NAMED_UNIT(*)
SI_UNIT(.MILLI.,.METRE.)
);
ENDSEC;
END-ISO-10303-21;
