ISO-10303-21;
HEADER;
/* Generated by software containing ST-Developer
 * from STEP Tools, Inc. (www.steptools.com) 
 */
/* OPTION: using custom schema-name function */

FILE_DESCRIPTION(
/* description */ (''),
/* implementation_level */ '2;1');

FILE_NAME(
/* name */ 'n 01 100 6001 001.stp',
/* time_stamp */ '2017-09-13T10:29:15+02:00',
/* author */ (''),
/* organization */ (''),
/* preprocessor_version */ 'ST-DEVELOPER v15',
/* originating_system */ 'SIEMENS PLM Software NX 9.0',
/* authorisation */ '');

FILE_SCHEMA (('CONFIG_CONTROL_DESIGN'));
ENDSEC;

DATA;
#10=SHAPE_REPRESENTATION_RELATIONSHIP('None',
'relationship between n 01 100 6001 001nxm001-02-None and n 01 100 600
1 001nxm001-02-None',#92,#11);
#11=ADVANCED_BREP_SHAPE_REPRESENTATION(
'n 01 100 6001 001nxm001-02-None',(#93),#369);
#12=CC_DESIGN_APPROVAL(#24,(#82));
#13=CC_DESIGN_APPROVAL(#25,(#84));
#14=CC_DESIGN_APPROVAL(#26,(#31));
#15=APPROVAL_PERSON_ORGANIZATION(#69,#24,#18);
#16=APPROVAL_PERSON_ORGANIZATION(#70,#25,#19);
#17=APPROVAL_PERSON_ORGANIZATION(#71,#26,#20);
#18=APPROVAL_ROLE('approver');
#19=APPROVAL_ROLE('approver');
#20=APPROVAL_ROLE('approver');
#21=APPROVAL_DATE_TIME(#39,#24);
#22=APPROVAL_DATE_TIME(#40,#25);
#23=APPROVAL_DATE_TIME(#41,#26);
#24=APPROVAL(#27,' ');
#25=APPROVAL(#28,' ');
#26=APPROVAL(#29,' ');
#27=APPROVAL_STATUS('not_yet_approved');
#28=APPROVAL_STATUS('not_yet_approved');
#29=APPROVAL_STATUS('not_yet_approved');
#30=CC_DESIGN_SECURITY_CLASSIFICATION(#31,(#84));
#31=SECURITY_CLASSIFICATION(' ',' ',#32);
#32=SECURITY_CLASSIFICATION_LEVEL('confidential');
#33=CC_DESIGN_DATE_AND_TIME_ASSIGNMENT(#37,#35,(#82));
#34=CC_DESIGN_DATE_AND_TIME_ASSIGNMENT(#38,#36,(#31));
#35=DATE_TIME_ROLE('creation_date');
#36=DATE_TIME_ROLE('classification_date');
#37=DATE_AND_TIME(#52,#42);
#38=DATE_AND_TIME(#53,#43);
#39=DATE_AND_TIME(#54,#44);
#40=DATE_AND_TIME(#55,#45);
#41=DATE_AND_TIME(#56,#46);
#42=LOCAL_TIME(0,0,0.,#47);
#43=LOCAL_TIME(0,0,0.,#48);
#44=LOCAL_TIME(0,0,0.,#49);
#45=LOCAL_TIME(0,0,0.,#50);
#46=LOCAL_TIME(0,0,0.,#51);
#47=COORDINATED_UNIVERSAL_TIME_OFFSET(0,0,.BEHIND.);
#48=COORDINATED_UNIVERSAL_TIME_OFFSET(0,0,.BEHIND.);
#49=COORDINATED_UNIVERSAL_TIME_OFFSET(0,0,.BEHIND.);
#50=COORDINATED_UNIVERSAL_TIME_OFFSET(0,0,.BEHIND.);
#51=COORDINATED_UNIVERSAL_TIME_OFFSET(0,0,.BEHIND.);
#52=CALENDAR_DATE(0,1,1);
#53=CALENDAR_DATE(0,1,1);
#54=CALENDAR_DATE(0,1,1);
#55=CALENDAR_DATE(0,1,1);
#56=CALENDAR_DATE(0,1,1);
#57=CC_DESIGN_PERSON_AND_ORGANIZATION_ASSIGNMENT(#65,#61,(#82,#84));
#58=CC_DESIGN_PERSON_AND_ORGANIZATION_ASSIGNMENT(#66,#62,(#86));
#59=CC_DESIGN_PERSON_AND_ORGANIZATION_ASSIGNMENT(#67,#63,(#84));
#60=CC_DESIGN_PERSON_AND_ORGANIZATION_ASSIGNMENT(#68,#64,(#31));
#61=PERSON_AND_ORGANIZATION_ROLE('creator');
#62=PERSON_AND_ORGANIZATION_ROLE('design_owner');
#63=PERSON_AND_ORGANIZATION_ROLE('design_supplier');
#64=PERSON_AND_ORGANIZATION_ROLE('classification_officer');
#65=PERSON_AND_ORGANIZATION(#79,#72);
#66=PERSON_AND_ORGANIZATION(#79,#73);
#67=PERSON_AND_ORGANIZATION(#79,#74);
#68=PERSON_AND_ORGANIZATION(#79,#75);
#69=PERSON_AND_ORGANIZATION(#79,#76);
#70=PERSON_AND_ORGANIZATION(#79,#77);
#71=PERSON_AND_ORGANIZATION(#79,#78);
#72=ORGANIZATION(' ',' ',' ');
#73=ORGANIZATION(' ',' ',' ');
#74=ORGANIZATION(' ',' ',' ');
#75=ORGANIZATION(' ',' ',' ');
#76=ORGANIZATION(' ',' ',' ');
#77=ORGANIZATION(' ',' ',' ');
#78=ORGANIZATION(' ',' ',' ');
#79=PERSON(' ',' ',' ',(' '),$,$);
#80=SHAPE_DEFINITION_REPRESENTATION(#81,#92);
#81=PRODUCT_DEFINITION_SHAPE('','',#82);
#82=PRODUCT_DEFINITION(' ','',#84,#83);
#83=DESIGN_CONTEXT('',#91,'design');
#84=PRODUCT_DEFINITION_FORMATION_WITH_SPECIFIED_SOURCE(' ',' ',#86,
 .NOT_KNOWN.);
#85=PRODUCT_RELATED_PRODUCT_CATEGORY('detail','',(#86));
#86=PRODUCT('n 01 100 6001 001nxm001-02','n 01 100 6001 001nxm001-02',
' ',(#89));
#87=PRODUCT_CATEGORY('part',' ');
#88=PRODUCT_CATEGORY(' ','');
#89=MECHANICAL_CONTEXT(' ',#91,'mechanical');
#90=APPLICATION_PROTOCOL_DEFINITION('international standard',
'config_control_design',2010,#91);
#91=APPLICATION_CONTEXT(
'configuration controlled 3D designs of mechanical parts and assemblie
s');
#92=SHAPE_REPRESENTATION('n 01 100 6001 001nxm001-02-None',(#243),#369);
#93=MANIFOLD_SOLID_BREP('',#94);
#94=CLOSED_SHELL('',(#107,#108,#109,#110,#111,#112,#113,#114,#115,#116,
#117,#118,#119,#120));
#95=VERTEX_LOOP('',#216);
#96=FACE_OUTER_BOUND('',#173,.T.);
#97=CONICAL_SURFACE('',#264,7.25,29.9999999999999);
#98=CONICAL_SURFACE('',#269,3.,59.);
#99=TOROIDAL_SURFACE('',#255,8.5,0.999999999999995);
#100=TOROIDAL_SURFACE('',#261,2.90000000000004,2.);
#101=CYLINDRICAL_SURFACE('',#249,8.25);
#102=CYLINDRICAL_SURFACE('',#253,9.5);
#103=CYLINDRICAL_SURFACE('',#258,5.);
#104=CYLINDRICAL_SURFACE('',#262,4.90000000000004);
#105=CYLINDRICAL_SURFACE('',#266,7.25);
#106=CYLINDRICAL_SURFACE('',#270,3.);
#107=ADVANCED_FACE('',(#125,#126),#121,.T.);
#108=ADVANCED_FACE('',(#127,#128),#101,.T.);
#109=ADVANCED_FACE('',(#129,#130),#122,.T.);
#110=ADVANCED_FACE('',(#131,#132),#102,.T.);
#111=ADVANCED_FACE('',(#133,#134),#99,.T.);
#112=ADVANCED_FACE('',(#135,#136),#123,.T.);
#113=ADVANCED_FACE('',(#137,#138),#103,.T.);
#114=ADVANCED_FACE('',(#139,#140),#100,.T.);
#115=ADVANCED_FACE('',(#141,#142),#104,.T.);
#116=ADVANCED_FACE('',(#143,#144),#97,.T.);
#117=ADVANCED_FACE('',(#145,#146),#105,.T.);
#118=ADVANCED_FACE('',(#96),#124,.F.);
#119=ADVANCED_FACE('',(#147,#148),#98,.F.);
#120=ADVANCED_FACE('',(#149,#150),#106,.F.);
#121=PLANE('',#246);
#122=PLANE('',#251);
#123=PLANE('',#257);
#124=PLANE('',#267);
#125=FACE_BOUND('',#151,.T.);
#126=FACE_BOUND('',#152,.T.);
#127=FACE_BOUND('',#153,.T.);
#128=FACE_BOUND('',#154,.T.);
#129=FACE_BOUND('',#155,.T.);
#130=FACE_BOUND('',#156,.T.);
#131=FACE_BOUND('',#157,.T.);
#132=FACE_BOUND('',#158,.T.);
#133=FACE_BOUND('',#159,.T.);
#134=FACE_BOUND('',#160,.T.);
#135=FACE_BOUND('',#161,.T.);
#136=FACE_BOUND('',#162,.T.);
#137=FACE_BOUND('',#163,.T.);
#138=FACE_BOUND('',#164,.T.);
#139=FACE_BOUND('',#165,.T.);
#140=FACE_BOUND('',#166,.T.);
#141=FACE_BOUND('',#167,.T.);
#142=FACE_BOUND('',#168,.T.);
#143=FACE_BOUND('',#169,.T.);
#144=FACE_BOUND('',#170,.T.);
#145=FACE_BOUND('',#171,.T.);
#146=FACE_BOUND('',#172,.T.);
#147=FACE_BOUND('',#174,.T.);
#148=FACE_BOUND('',#95,.T.);
#149=FACE_BOUND('',#175,.T.);
#150=FACE_BOUND('',#176,.T.);
#151=EDGE_LOOP('',(#177));
#152=EDGE_LOOP('',(#178));
#153=EDGE_LOOP('',(#179));
#154=EDGE_LOOP('',(#180));
#155=EDGE_LOOP('',(#181));
#156=EDGE_LOOP('',(#182));
#157=EDGE_LOOP('',(#183));
#158=EDGE_LOOP('',(#184));
#159=EDGE_LOOP('',(#185));
#160=EDGE_LOOP('',(#186));
#161=EDGE_LOOP('',(#187));
#162=EDGE_LOOP('',(#188));
#163=EDGE_LOOP('',(#189));
#164=EDGE_LOOP('',(#190));
#165=EDGE_LOOP('',(#191));
#166=EDGE_LOOP('',(#192));
#167=EDGE_LOOP('',(#193));
#168=EDGE_LOOP('',(#194));
#169=EDGE_LOOP('',(#195));
#170=EDGE_LOOP('',(#196));
#171=EDGE_LOOP('',(#197));
#172=EDGE_LOOP('',(#198));
#173=EDGE_LOOP('',(#199));
#174=EDGE_LOOP('',(#200));
#175=EDGE_LOOP('',(#201));
#176=EDGE_LOOP('',(#202));
#177=ORIENTED_EDGE('',*,*,#217,.T.);
#178=ORIENTED_EDGE('',*,*,#218,.T.);
#179=ORIENTED_EDGE('',*,*,#219,.T.);
#180=ORIENTED_EDGE('',*,*,#220,.F.);
#181=ORIENTED_EDGE('',*,*,#220,.T.);
#182=ORIENTED_EDGE('',*,*,#221,.T.);
#183=ORIENTED_EDGE('',*,*,#221,.F.);
#184=ORIENTED_EDGE('',*,*,#222,.T.);
#185=ORIENTED_EDGE('',*,*,#223,.F.);
#186=ORIENTED_EDGE('',*,*,#222,.F.);
#187=ORIENTED_EDGE('',*,*,#224,.F.);
#188=ORIENTED_EDGE('',*,*,#223,.T.);
#189=ORIENTED_EDGE('',*,*,#218,.F.);
#190=ORIENTED_EDGE('',*,*,#224,.T.);
#191=ORIENTED_EDGE('',*,*,#225,.F.);
#192=ORIENTED_EDGE('',*,*,#226,.F.);
#193=ORIENTED_EDGE('',*,*,#217,.F.);
#194=ORIENTED_EDGE('',*,*,#226,.T.);
#195=ORIENTED_EDGE('',*,*,#219,.F.);
#196=ORIENTED_EDGE('',*,*,#227,.F.);
#197=ORIENTED_EDGE('',*,*,#227,.T.);
#198=ORIENTED_EDGE('',*,*,#228,.F.);
#199=ORIENTED_EDGE('',*,*,#228,.T.);
#200=ORIENTED_EDGE('',*,*,#229,.T.);
#201=ORIENTED_EDGE('',*,*,#225,.T.);
#202=ORIENTED_EDGE('',*,*,#229,.F.);
#203=VERTEX_POINT('',#329);
#204=VERTEX_POINT('',#331);
#205=VERTEX_POINT('',#334);
#206=VERTEX_POINT('',#336);
#207=VERTEX_POINT('',#339);
#208=VERTEX_POINT('',#342);
#209=VERTEX_POINT('',#345);
#210=VERTEX_POINT('',#348);
#211=VERTEX_POINT('',#352);
#212=VERTEX_POINT('',#354);
#213=VERTEX_POINT('',#358);
#214=VERTEX_POINT('',#361);
#215=VERTEX_POINT('',#365);
#216=VERTEX_POINT('',#366);
#217=EDGE_CURVE('',#203,#203,#230,.T.);
#218=EDGE_CURVE('',#204,#204,#231,.T.);
#219=EDGE_CURVE('',#205,#205,#232,.T.);
#220=EDGE_CURVE('',#206,#206,#233,.T.);
#221=EDGE_CURVE('',#207,#207,#234,.T.);
#222=EDGE_CURVE('',#208,#208,#235,.T.);
#223=EDGE_CURVE('',#209,#209,#236,.T.);
#224=EDGE_CURVE('',#210,#210,#237,.T.);
#225=EDGE_CURVE('',#211,#211,#238,.T.);
#226=EDGE_CURVE('',#212,#212,#239,.T.);
#227=EDGE_CURVE('',#213,#213,#240,.T.);
#228=EDGE_CURVE('',#214,#214,#241,.T.);
#229=EDGE_CURVE('',#215,#215,#242,.T.);
#230=CIRCLE('',#244,4.90000000000004);
#231=CIRCLE('',#245,5.);
#232=CIRCLE('',#247,8.25);
#233=CIRCLE('',#248,8.25);
#234=CIRCLE('',#250,9.5);
#235=CIRCLE('',#252,9.5);
#236=CIRCLE('',#254,8.5);
#237=CIRCLE('',#256,5.);
#238=CIRCLE('',#259,3.);
#239=CIRCLE('',#260,4.90000000000004);
#240=CIRCLE('',#263,7.25);
#241=CIRCLE('',#265,7.25);
#242=CIRCLE('',#268,3.);
#243=AXIS2_PLACEMENT_3D('',#327,#271,#272);
#244=AXIS2_PLACEMENT_3D('',#328,#273,#274);
#245=AXIS2_PLACEMENT_3D('',#330,#275,#276);
#246=AXIS2_PLACEMENT_3D('',#332,#277,#278);
#247=AXIS2_PLACEMENT_3D('',#333,#279,#280);
#248=AXIS2_PLACEMENT_3D('',#335,#281,#282);
#249=AXIS2_PLACEMENT_3D('',#337,#283,#284);
#250=AXIS2_PLACEMENT_3D('',#338,#285,#286);
#251=AXIS2_PLACEMENT_3D('',#340,#287,#288);
#252=AXIS2_PLACEMENT_3D('',#341,#289,#290);
#253=AXIS2_PLACEMENT_3D('',#343,#291,#292);
#254=AXIS2_PLACEMENT_3D('',#344,#293,#294);
#255=AXIS2_PLACEMENT_3D('',#346,#295,#296);
#256=AXIS2_PLACEMENT_3D('',#347,#297,#298);
#257=AXIS2_PLACEMENT_3D('',#349,#299,#300);
#258=AXIS2_PLACEMENT_3D('',#350,#301,#302);
#259=AXIS2_PLACEMENT_3D('',#351,#303,#304);
#260=AXIS2_PLACEMENT_3D('',#353,#305,#306);
#261=AXIS2_PLACEMENT_3D('',#355,#307,#308);
#262=AXIS2_PLACEMENT_3D('',#356,#309,#310);
#263=AXIS2_PLACEMENT_3D('',#357,#311,#312);
#264=AXIS2_PLACEMENT_3D('',#359,#313,#314);
#265=AXIS2_PLACEMENT_3D('',#360,#315,#316);
#266=AXIS2_PLACEMENT_3D('',#362,#317,#318);
#267=AXIS2_PLACEMENT_3D('',#363,#319,#320);
#268=AXIS2_PLACEMENT_3D('',#364,#321,#322);
#269=AXIS2_PLACEMENT_3D('',#367,#323,#324);
#270=AXIS2_PLACEMENT_3D('',#368,#325,#326);
#271=DIRECTION('',(0.,0.,1.));
#272=DIRECTION('',(1.,0.,0.));
#273=DIRECTION('',(-1.,0.,0.));
#274=DIRECTION('',(0.,0.924224592736303,0.381849318686593));
#275=DIRECTION('',(1.,0.,0.));
#276=DIRECTION('',(0.,0.,-1.));
#277=DIRECTION('',(1.,0.,0.));
#278=DIRECTION('',(0.,1.,0.));
#279=DIRECTION('',(1.,-7.97275732854539E-017,2.03698589982123E-016));
#280=DIRECTION('',(0.,1.,0.));
#281=DIRECTION('',(1.,0.,0.));
#282=DIRECTION('',(0.,0.,1.));
#283=DIRECTION('',(1.,0.,0.));
#284=DIRECTION('',(0.,1.,0.));
#285=DIRECTION('',(-1.,-5.41044358979123E-017,-2.81134895670112E-016));
#286=DIRECTION('',(0.,1.,-5.41044358979121E-016));
#287=DIRECTION('',(-1.,0.,0.));
#288=DIRECTION('',(0.,1.,0.));
#289=DIRECTION('',(-1.,-1.4371490785383E-016,-5.97411653298988E-016));
#290=DIRECTION('',(0.,1.,-1.22157671675755E-015));
#291=DIRECTION('',(1.,2.0865480538016E-016,-3.61400724161834E-016));
#292=DIRECTION('',(-3.65204942310907E-016,1.,-1.78818066642573E-016));
#293=DIRECTION('',(1.,0.,0.));
#294=DIRECTION('',(0.,1.,-1.36529162461138E-016));
#295=DIRECTION('',(1.,0.,0.));
#296=DIRECTION('',(0.,0.,1.));
#297=DIRECTION('',(1.,0.,0.));
#298=DIRECTION('',(0.,0.,-1.));
#299=DIRECTION('',(1.,0.,0.));
#300=DIRECTION('',(0.,1.,0.));
#301=DIRECTION('',(1.,0.,0.));
#302=DIRECTION('',(0.,1.,-1.24607836117787E-016));
#303=DIRECTION('',(1.,0.,0.));
#304=DIRECTION('',(0.,0.,1.));
#305=DIRECTION('',(-1.,0.,0.));
#306=DIRECTION('',(0.,0.924224592736303,0.381849318686593));
#307=DIRECTION('',(-1.,0.,0.));
#308=DIRECTION('',(0.,0.924224592736303,0.381849318686593));
#309=DIRECTION('',(-1.,0.,0.));
#310=DIRECTION('',(0.,0.924224592736303,0.381849318686593));
#311=DIRECTION('',(-1.,6.00076908228557E-016,6.91539911464827E-016));
#312=DIRECTION('',(4.78544407166016E-016,1.,-7.49503246701108E-016));
#313=DIRECTION('',(1.,2.10064170919062E-016,0.));
#314=DIRECTION('',(-2.84867220339503E-016,1.,0.));
#315=DIRECTION('',(-1.,2.94614096219684E-017,-3.97007818669286E-033));
#316=DIRECTION('',(2.94614096219684E-017,1.,-8.50745612739584E-016));
#317=DIRECTION('',(1.,1.24917207783518E-016,1.07981543513809E-032));
#318=DIRECTION('',(-1.24917207783518E-016,1.,1.24917207783518E-016));
#319=DIRECTION('',(1.,0.,0.));
#320=DIRECTION('',(0.,0.,-1.));
#321=DIRECTION('',(1.,0.,0.));
#322=DIRECTION('',(0.,0.,1.));
#323=DIRECTION('',(1.,0.,0.));
#324=DIRECTION('',(-4.99416730838059E-017,0.,-1.));
#325=DIRECTION('',(-1.,0.,0.));
#326=DIRECTION('',(0.,0.,1.));
#327=CARTESIAN_POINT('',(0.,0.,0.));
#328=CARTESIAN_POINT('',(49.9999999999999,-1.14932067042596E-014,-1.21377890813074E-014));
#329=CARTESIAN_POINT('',(49.9999999999999,4.52870050440791,1.87106166156431));
#330=CARTESIAN_POINT('',(50.,8.67361737988404E-016,6.23039180588934E-016));
#331=CARTESIAN_POINT('',(50.,8.67361737988404E-016,-5.));
#332=CARTESIAN_POINT('',(50.,-5.28,-5.28));
#333=CARTESIAN_POINT('',(21.8,-3.46944695195362E-015,0.));
#334=CARTESIAN_POINT('',(21.8,8.25,0.));
#335=CARTESIAN_POINT('',(24.3,-1.7347234759768E-015,0.));
#336=CARTESIAN_POINT('',(24.3,-1.7347234759768E-015,8.25));
#337=CARTESIAN_POINT('',(21.8,-1.7347234759768E-015,0.));
#338=CARTESIAN_POINT('',(24.3,-5.20417042793042E-015,5.13992141030165E-015));
#339=CARTESIAN_POINT('',(24.3,9.49999999999999,7.70371977754894E-031));
#340=CARTESIAN_POINT('',(24.3,-10.45,10.45));
#341=CARTESIAN_POINT('',(24.5,-1.04083408558608E-014,1.1555540873125E-014));
#342=CARTESIAN_POINT('',(24.5,9.49999999999999,-4.94379360717251E-017));
#343=CARTESIAN_POINT('',(24.3,-1.76602169678383E-015,1.75298174172872E-015));
#344=CARTESIAN_POINT('',(25.5,0.,1.2056729714399E-015));
#345=CARTESIAN_POINT('',(25.5,8.5,4.51750905202268E-017));
#346=CARTESIAN_POINT('',(24.5,8.67361737988404E-015,1.31561428418081E-014));
#347=CARTESIAN_POINT('',(25.5,8.67361737988404E-016,6.23039180588934E-016));
#348=CARTESIAN_POINT('',(25.5,8.67361737988404E-016,-5.));
#349=CARTESIAN_POINT('',(25.5,-10.45,-10.45));
#350=CARTESIAN_POINT('',(25.5,8.67361737988404E-016,6.23039180588934E-016));
#351=CARTESIAN_POINT('',(54.4974984355438,-1.14932067042596E-014,-1.21377890813074E-014));
#352=CARTESIAN_POINT('',(54.4974984355438,-1.14932067042596E-014,2.99999999999999));
#353=CARTESIAN_POINT('',(52.4999999999999,-1.14932067042596E-014,-1.21377890813074E-014));
#354=CARTESIAN_POINT('',(52.4999999999999,4.52870050440791,1.87106166156431));
#355=CARTESIAN_POINT('',(52.5,-1.14932067042596E-014,-1.21377890813074E-014));
#356=CARTESIAN_POINT('',(-291.5,-1.14932067042596E-014,-1.21377890813074E-014));
#357=CARTESIAN_POINT('',(20.0679491924311,-6.07153216591882E-015,5.43389853858304E-015));
#358=CARTESIAN_POINT('',(20.0679491924311,7.24999999999999,6.16297582203915E-030));
#359=CARTESIAN_POINT('',(20.0679491924311,-4.51872959838284E-015,0.));
#360=CARTESIAN_POINT('',(2.13595219759271E-016,-7.80625564189563E-015,6.16790569236199E-015));
#361=CARTESIAN_POINT('',(4.27190439518541E-016,7.24999999999999,5.39260384428426E-030));
#362=CARTESIAN_POINT('',(1.7347234759768E-015,4.81307386446809E-016,-9.05649756430505E-016));
#363=CARTESIAN_POINT('',(0.,0.,-4.54));
#364=CARTESIAN_POINT('',(24.4974984355438,-1.14932067042596E-014,-1.21377890813074E-014));
#365=CARTESIAN_POINT('',(24.4974984355438,-1.14932067042596E-014,2.99999999999999));
#366=CARTESIAN_POINT('',(22.6949165784611,-1.14932067042596E-014,-1.21377890813074E-014));
#367=CARTESIAN_POINT('',(24.4974984355438,-1.14932067042596E-014,-1.21377890813074E-014));
#368=CARTESIAN_POINT('',(54.4974984355438,-1.14932067042596E-014,-1.21377890813074E-014));
#369=(
GEOMETRIC_REPRESENTATION_CONTEXT(3)
GLOBAL_UNCERTAINTY_ASSIGNED_CONTEXT((#370))
GLOBAL_UNIT_ASSIGNED_CONTEXT((#376,#372,#371))
REPRESENTATION_CONTEXT('n 01 100 6001 001','TOP_LEVEL_ASSEMBLY_PART')
);
#370=UNCERTAINTY_MEASURE_WITH_UNIT(LENGTH_MEASURE(2.E-005),#376,
'DISTANCE_ACCURACY_VALUE','Maximum Tolerance applied to model');
#371=(
NAMED_UNIT(*)
SI_UNIT($,.STERADIAN.)
SOLID_ANGLE_UNIT()
);
#372=(
CONVERSION_BASED_UNIT('DEGREE',#374)
NAMED_UNIT(#373)
PLANE_ANGLE_UNIT()
);
#373=DIMENSIONAL_EXPONENTS(0.,0.,0.,0.,0.,0.,0.);
#374=PLANE_ANGLE_MEASURE_WITH_UNIT(PLANE_ANGLE_MEASURE(0.0174532925),#375);
#375=(
NAMED_UNIT(*)
PLANE_ANGLE_UNIT()
SI_UNIT($,.RADIAN.)
);
#376=(
LENGTH_UNIT()
NAMED_UNIT(*)
SI_UNIT(.MILLI.,.METRE.)
);
ENDSEC;
END-ISO-10303-21;
