ISO-10303-21;
HEADER;
/* Generated by software containing ST-Developer
 * from STEP Tools, Inc. (www.steptools.com) 
 */
/* OPTION: using custom schema-name function */

FILE_DESCRIPTION(
/* description */ (''),
/* implementation_level */ '2;1');

FILE_NAME(
/* name */ 'n 01 100 6002 001.stp',
/* time_stamp */ '2017-09-13T10:27:46+02:00',
/* author */ (''),
/* organization */ (''),
/* preprocessor_version */ 'ST-DEVELOPER v15',
/* originating_system */ 'SIEMENS PLM Software NX 9.0',
/* authorisation */ '');

FILE_SCHEMA (('CONFIG_CONTROL_DESIGN'));
ENDSEC;

DATA;
#10=SHAPE_REPRESENTATION_RELATIONSHIP('None',
'relationship between n 01 100 6002 001nxm001-02-None and n 01 100 600
2 001nxm001-02-None',#92,#11);
#11=ADVANCED_BREP_SHAPE_REPRESENTATION(
'n 01 100 6002 001nxm001-02-None',(#93),#329);
#12=CC_DESIGN_APPROVAL(#24,(#82));
#13=CC_DESIGN_APPROVAL(#25,(#84));
#14=CC_DESIGN_APPROVAL(#26,(#31));
#15=APPROVAL_PERSON_ORGANIZATION(#69,#24,#18);
#16=APPROVAL_PERSON_ORGANIZATION(#70,#25,#19);
#17=APPROVAL_PERSON_ORGANIZATION(#71,#26,#20);
#18=APPROVAL_ROLE('approver');
#19=APPROVAL_ROLE('approver');
#20=APPROVAL_ROLE('approver');
#21=APPROVAL_DATE_TIME(#39,#24);
#22=APPROVAL_DATE_TIME(#40,#25);
#23=APPROVAL_DATE_TIME(#41,#26);
#24=APPROVAL(#27,' ');
#25=APPROVAL(#28,' ');
#26=APPROVAL(#29,' ');
#27=APPROVAL_STATUS('not_yet_approved');
#28=APPROVAL_STATUS('not_yet_approved');
#29=APPROVAL_STATUS('not_yet_approved');
#30=CC_DESIGN_SECURITY_CLASSIFICATION(#31,(#84));
#31=SECURITY_CLASSIFICATION(' ',' ',#32);
#32=SECURITY_CLASSIFICATION_LEVEL('confidential');
#33=CC_DESIGN_DATE_AND_TIME_ASSIGNMENT(#37,#35,(#82));
#34=CC_DESIGN_DATE_AND_TIME_ASSIGNMENT(#38,#36,(#31));
#35=DATE_TIME_ROLE('creation_date');
#36=DATE_TIME_ROLE('classification_date');
#37=DATE_AND_TIME(#52,#42);
#38=DATE_AND_TIME(#53,#43);
#39=DATE_AND_TIME(#54,#44);
#40=DATE_AND_TIME(#55,#45);
#41=DATE_AND_TIME(#56,#46);
#42=LOCAL_TIME(0,0,0.,#47);
#43=LOCAL_TIME(0,0,0.,#48);
#44=LOCAL_TIME(0,0,0.,#49);
#45=LOCAL_TIME(0,0,0.,#50);
#46=LOCAL_TIME(0,0,0.,#51);
#47=COORDINATED_UNIVERSAL_TIME_OFFSET(0,0,.BEHIND.);
#48=COORDINATED_UNIVERSAL_TIME_OFFSET(0,0,.BEHIND.);
#49=COORDINATED_UNIVERSAL_TIME_OFFSET(0,0,.BEHIND.);
#50=COORDINATED_UNIVERSAL_TIME_OFFSET(0,0,.BEHIND.);
#51=COORDINATED_UNIVERSAL_TIME_OFFSET(0,0,.BEHIND.);
#52=CALENDAR_DATE(0,1,1);
#53=CALENDAR_DATE(0,1,1);
#54=CALENDAR_DATE(0,1,1);
#55=CALENDAR_DATE(0,1,1);
#56=CALENDAR_DATE(0,1,1);
#57=CC_DESIGN_PERSON_AND_ORGANIZATION_ASSIGNMENT(#65,#61,(#82,#84));
#58=CC_DESIGN_PERSON_AND_ORGANIZATION_ASSIGNMENT(#66,#62,(#86));
#59=CC_DESIGN_PERSON_AND_ORGANIZATION_ASSIGNMENT(#67,#63,(#84));
#60=CC_DESIGN_PERSON_AND_ORGANIZATION_ASSIGNMENT(#68,#64,(#31));
#61=PERSON_AND_ORGANIZATION_ROLE('creator');
#62=PERSON_AND_ORGANIZATION_ROLE('design_owner');
#63=PERSON_AND_ORGANIZATION_ROLE('design_supplier');
#64=PERSON_AND_ORGANIZATION_ROLE('classification_officer');
#65=PERSON_AND_ORGANIZATION(#79,#72);
#66=PERSON_AND_ORGANIZATION(#79,#73);
#67=PERSON_AND_ORGANIZATION(#79,#74);
#68=PERSON_AND_ORGANIZATION(#79,#75);
#69=PERSON_AND_ORGANIZATION(#79,#76);
#70=PERSON_AND_ORGANIZATION(#79,#77);
#71=PERSON_AND_ORGANIZATION(#79,#78);
#72=ORGANIZATION(' ',' ',' ');
#73=ORGANIZATION(' ',' ',' ');
#74=ORGANIZATION(' ',' ',' ');
#75=ORGANIZATION(' ',' ',' ');
#76=ORGANIZATION(' ',' ',' ');
#77=ORGANIZATION(' ',' ',' ');
#78=ORGANIZATION(' ',' ',' ');
#79=PERSON(' ',' ',' ',(' '),$,$);
#80=SHAPE_DEFINITION_REPRESENTATION(#81,#92);
#81=PRODUCT_DEFINITION_SHAPE('','',#82);
#82=PRODUCT_DEFINITION(' ','',#84,#83);
#83=DESIGN_CONTEXT('',#91,'design');
#84=PRODUCT_DEFINITION_FORMATION_WITH_SPECIFIED_SOURCE(' ',' ',#86,
 .NOT_KNOWN.);
#85=PRODUCT_RELATED_PRODUCT_CATEGORY('detail','',(#86));
#86=PRODUCT('n 01 100 6002 001nxm001-02','n 01 100 6002 001nxm001-02',
' ',(#89));
#87=PRODUCT_CATEGORY('part',' ');
#88=PRODUCT_CATEGORY(' ','');
#89=MECHANICAL_CONTEXT(' ',#91,'mechanical');
#90=APPLICATION_PROTOCOL_DEFINITION('international standard',
'config_control_design',2010,#91);
#91=APPLICATION_CONTEXT(
'configuration controlled 3D designs of mechanical parts and assemblie
s');
#92=SHAPE_REPRESENTATION('n 01 100 6002 001nxm001-02-None',(#221),#329);
#93=MANIFOLD_SOLID_BREP('',#94);
#94=CLOSED_SHELL('',(#105,#106,#107,#108,#109,#110,#111,#112,#113,#114,
#115,#116));
#95=CONICAL_SURFACE('',#243,3.,59.);
#96=VERTEX_LOOP('',#198);
#97=FACE_OUTER_BOUND('',#161,.T.);
#98=TOROIDAL_SURFACE('',#233,8.5,0.999999999999995);
#99=TOROIDAL_SURFACE('',#239,2.90000000000004,2.);
#100=CYLINDRICAL_SURFACE('',#227,8.25);
#101=CYLINDRICAL_SURFACE('',#231,9.5);
#102=CYLINDRICAL_SURFACE('',#236,5.);
#103=CYLINDRICAL_SURFACE('',#240,4.90000000000004);
#104=CYLINDRICAL_SURFACE('',#244,3.);
#105=ADVANCED_FACE('',(#121,#122),#117,.T.);
#106=ADVANCED_FACE('',(#123,#124),#100,.T.);
#107=ADVANCED_FACE('',(#125,#126),#118,.T.);
#108=ADVANCED_FACE('',(#127,#128),#101,.T.);
#109=ADVANCED_FACE('',(#129,#130),#98,.T.);
#110=ADVANCED_FACE('',(#131,#132),#119,.T.);
#111=ADVANCED_FACE('',(#133,#134),#102,.T.);
#112=ADVANCED_FACE('',(#135,#136),#99,.T.);
#113=ADVANCED_FACE('',(#137,#138),#103,.T.);
#114=ADVANCED_FACE('',(#97),#120,.F.);
#115=ADVANCED_FACE('',(#139,#140),#95,.F.);
#116=ADVANCED_FACE('',(#141,#142),#104,.F.);
#117=PLANE('',#224);
#118=PLANE('',#229);
#119=PLANE('',#235);
#120=PLANE('',#241);
#121=FACE_BOUND('',#143,.T.);
#122=FACE_BOUND('',#144,.T.);
#123=FACE_BOUND('',#145,.T.);
#124=FACE_BOUND('',#146,.T.);
#125=FACE_BOUND('',#147,.T.);
#126=FACE_BOUND('',#148,.T.);
#127=FACE_BOUND('',#149,.T.);
#128=FACE_BOUND('',#150,.T.);
#129=FACE_BOUND('',#151,.T.);
#130=FACE_BOUND('',#152,.T.);
#131=FACE_BOUND('',#153,.T.);
#132=FACE_BOUND('',#154,.T.);
#133=FACE_BOUND('',#155,.T.);
#134=FACE_BOUND('',#156,.T.);
#135=FACE_BOUND('',#157,.T.);
#136=FACE_BOUND('',#158,.T.);
#137=FACE_BOUND('',#159,.T.);
#138=FACE_BOUND('',#160,.T.);
#139=FACE_BOUND('',#162,.T.);
#140=FACE_BOUND('',#96,.T.);
#141=FACE_BOUND('',#163,.T.);
#142=FACE_BOUND('',#164,.T.);
#143=EDGE_LOOP('',(#165));
#144=EDGE_LOOP('',(#166));
#145=EDGE_LOOP('',(#167));
#146=EDGE_LOOP('',(#168));
#147=EDGE_LOOP('',(#169));
#148=EDGE_LOOP('',(#170));
#149=EDGE_LOOP('',(#171));
#150=EDGE_LOOP('',(#172));
#151=EDGE_LOOP('',(#173));
#152=EDGE_LOOP('',(#174));
#153=EDGE_LOOP('',(#175));
#154=EDGE_LOOP('',(#176));
#155=EDGE_LOOP('',(#177));
#156=EDGE_LOOP('',(#178));
#157=EDGE_LOOP('',(#179));
#158=EDGE_LOOP('',(#180));
#159=EDGE_LOOP('',(#181));
#160=EDGE_LOOP('',(#182));
#161=EDGE_LOOP('',(#183));
#162=EDGE_LOOP('',(#184));
#163=EDGE_LOOP('',(#185));
#164=EDGE_LOOP('',(#186));
#165=ORIENTED_EDGE('',*,*,#199,.T.);
#166=ORIENTED_EDGE('',*,*,#200,.T.);
#167=ORIENTED_EDGE('',*,*,#201,.F.);
#168=ORIENTED_EDGE('',*,*,#202,.F.);
#169=ORIENTED_EDGE('',*,*,#201,.T.);
#170=ORIENTED_EDGE('',*,*,#203,.T.);
#171=ORIENTED_EDGE('',*,*,#203,.F.);
#172=ORIENTED_EDGE('',*,*,#204,.T.);
#173=ORIENTED_EDGE('',*,*,#205,.F.);
#174=ORIENTED_EDGE('',*,*,#204,.F.);
#175=ORIENTED_EDGE('',*,*,#206,.F.);
#176=ORIENTED_EDGE('',*,*,#205,.T.);
#177=ORIENTED_EDGE('',*,*,#200,.F.);
#178=ORIENTED_EDGE('',*,*,#206,.T.);
#179=ORIENTED_EDGE('',*,*,#207,.F.);
#180=ORIENTED_EDGE('',*,*,#208,.F.);
#181=ORIENTED_EDGE('',*,*,#199,.F.);
#182=ORIENTED_EDGE('',*,*,#208,.T.);
#183=ORIENTED_EDGE('',*,*,#202,.T.);
#184=ORIENTED_EDGE('',*,*,#209,.T.);
#185=ORIENTED_EDGE('',*,*,#207,.T.);
#186=ORIENTED_EDGE('',*,*,#209,.F.);
#187=VERTEX_POINT('',#295);
#188=VERTEX_POINT('',#297);
#189=VERTEX_POINT('',#300);
#190=VERTEX_POINT('',#302);
#191=VERTEX_POINT('',#305);
#192=VERTEX_POINT('',#308);
#193=VERTEX_POINT('',#311);
#194=VERTEX_POINT('',#314);
#195=VERTEX_POINT('',#318);
#196=VERTEX_POINT('',#320);
#197=VERTEX_POINT('',#325);
#198=VERTEX_POINT('',#326);
#199=EDGE_CURVE('',#187,#187,#210,.T.);
#200=EDGE_CURVE('',#188,#188,#211,.T.);
#201=EDGE_CURVE('',#189,#189,#212,.T.);
#202=EDGE_CURVE('',#190,#190,#213,.T.);
#203=EDGE_CURVE('',#191,#191,#214,.T.);
#204=EDGE_CURVE('',#192,#192,#215,.T.);
#205=EDGE_CURVE('',#193,#193,#216,.T.);
#206=EDGE_CURVE('',#194,#194,#217,.T.);
#207=EDGE_CURVE('',#195,#195,#218,.T.);
#208=EDGE_CURVE('',#196,#196,#219,.T.);
#209=EDGE_CURVE('',#197,#197,#220,.T.);
#210=CIRCLE('',#222,4.90000000000004);
#211=CIRCLE('',#223,5.);
#212=CIRCLE('',#225,8.25);
#213=CIRCLE('',#226,8.25);
#214=CIRCLE('',#228,9.5);
#215=CIRCLE('',#230,9.5);
#216=CIRCLE('',#232,8.5);
#217=CIRCLE('',#234,5.);
#218=CIRCLE('',#237,3.);
#219=CIRCLE('',#238,4.90000000000004);
#220=CIRCLE('',#242,3.);
#221=AXIS2_PLACEMENT_3D('',#293,#245,#246);
#222=AXIS2_PLACEMENT_3D('',#294,#247,#248);
#223=AXIS2_PLACEMENT_3D('',#296,#249,#250);
#224=AXIS2_PLACEMENT_3D('',#298,#251,#252);
#225=AXIS2_PLACEMENT_3D('',#299,#253,#254);
#226=AXIS2_PLACEMENT_3D('',#301,#255,#256);
#227=AXIS2_PLACEMENT_3D('',#303,#257,#258);
#228=AXIS2_PLACEMENT_3D('',#304,#259,#260);
#229=AXIS2_PLACEMENT_3D('',#306,#261,#262);
#230=AXIS2_PLACEMENT_3D('',#307,#263,#264);
#231=AXIS2_PLACEMENT_3D('',#309,#265,#266);
#232=AXIS2_PLACEMENT_3D('',#310,#267,#268);
#233=AXIS2_PLACEMENT_3D('',#312,#269,#270);
#234=AXIS2_PLACEMENT_3D('',#313,#271,#272);
#235=AXIS2_PLACEMENT_3D('',#315,#273,#274);
#236=AXIS2_PLACEMENT_3D('',#316,#275,#276);
#237=AXIS2_PLACEMENT_3D('',#317,#277,#278);
#238=AXIS2_PLACEMENT_3D('',#319,#279,#280);
#239=AXIS2_PLACEMENT_3D('',#321,#281,#282);
#240=AXIS2_PLACEMENT_3D('',#322,#283,#284);
#241=AXIS2_PLACEMENT_3D('',#323,#285,#286);
#242=AXIS2_PLACEMENT_3D('',#324,#287,#288);
#243=AXIS2_PLACEMENT_3D('',#327,#289,#290);
#244=AXIS2_PLACEMENT_3D('',#328,#291,#292);
#245=DIRECTION('',(0.,0.,1.));
#246=DIRECTION('',(1.,0.,0.));
#247=DIRECTION('',(-1.,0.,0.));
#248=DIRECTION('',(0.,0.924224592736303,0.381849318686593));
#249=DIRECTION('',(1.,0.,0.));
#250=DIRECTION('',(0.,0.,-1.));
#251=DIRECTION('',(1.,0.,0.));
#252=DIRECTION('',(0.,1.,0.));
#253=DIRECTION('',(1.,0.,0.));
#254=DIRECTION('',(0.,0.,1.));
#255=DIRECTION('',(-1.,4.81566351068332E-017,-1.84268619476892E-033));
#256=DIRECTION('',(4.81566351068332E-017,1.,-9.96833243210017E-016));
#257=DIRECTION('',(1.,0.,0.));
#258=DIRECTION('',(0.,1.,0.));
#259=DIRECTION('',(-1.,-5.41044358979123E-017,-2.81134895670112E-016));
#260=DIRECTION('',(0.,1.,-5.41044358979121E-016));
#261=DIRECTION('',(-1.,0.,0.));
#262=DIRECTION('',(0.,1.,0.));
#263=DIRECTION('',(-1.,-1.4371490785383E-016,-5.97411653298988E-016));
#264=DIRECTION('',(0.,1.,-1.22157671675755E-015));
#265=DIRECTION('',(1.,2.0865480538016E-016,-3.61400724161834E-016));
#266=DIRECTION('',(-3.65204942310907E-016,1.,-1.78818066642573E-016));
#267=DIRECTION('',(1.,0.,0.));
#268=DIRECTION('',(0.,1.,-1.36529162461138E-016));
#269=DIRECTION('',(1.,0.,0.));
#270=DIRECTION('',(0.,0.,1.));
#271=DIRECTION('',(1.,0.,0.));
#272=DIRECTION('',(0.,0.,-1.));
#273=DIRECTION('',(1.,0.,0.));
#274=DIRECTION('',(0.,1.,0.));
#275=DIRECTION('',(1.,0.,0.));
#276=DIRECTION('',(0.,1.,-1.24607836117787E-016));
#277=DIRECTION('',(1.,0.,0.));
#278=DIRECTION('',(0.,0.,1.));
#279=DIRECTION('',(-1.,0.,0.));
#280=DIRECTION('',(0.,0.924224592736303,0.381849318686593));
#281=DIRECTION('',(-1.,0.,0.));
#282=DIRECTION('',(0.,0.924224592736303,0.381849318686593));
#283=DIRECTION('',(-1.,0.,0.));
#284=DIRECTION('',(0.,0.924224592736303,0.381849318686593));
#285=DIRECTION('',(1.,0.,0.));
#286=DIRECTION('',(0.,0.,-1.));
#287=DIRECTION('',(1.,0.,0.));
#288=DIRECTION('',(0.,0.,1.));
#289=DIRECTION('',(1.,0.,0.));
#290=DIRECTION('',(-4.99416730838059E-017,0.,-1.));
#291=DIRECTION('',(-1.,0.,0.));
#292=DIRECTION('',(0.,0.,1.));
#293=CARTESIAN_POINT('',(0.,0.,0.));
#294=CARTESIAN_POINT('',(49.9999999999999,-1.14932067042596E-014,-1.21377890813074E-014));
#295=CARTESIAN_POINT('',(49.9999999999999,4.52870050440791,1.87106166156431));
#296=CARTESIAN_POINT('',(50.,8.67361737988404E-016,6.23039180588934E-016));
#297=CARTESIAN_POINT('',(50.,8.67361737988404E-016,-5.));
#298=CARTESIAN_POINT('',(50.,-5.28,-5.28));
#299=CARTESIAN_POINT('',(24.3,-1.7347234759768E-015,0.));
#300=CARTESIAN_POINT('',(24.3,-1.7347234759768E-015,8.25));
#301=CARTESIAN_POINT('',(3.97292239631374E-016,-6.93889390390723E-015,8.22387425648265E-015));
#302=CARTESIAN_POINT('',(7.94584479262747E-016,8.24999999999999,6.16297582203915E-030));
#303=CARTESIAN_POINT('',(21.8,-1.7347234759768E-015,0.));
#304=CARTESIAN_POINT('',(24.3,-5.20417042793042E-015,5.13992141030165E-015));
#305=CARTESIAN_POINT('',(24.3,9.49999999999999,7.70371977754894E-031));
#306=CARTESIAN_POINT('',(24.3,-10.45,10.45));
#307=CARTESIAN_POINT('',(24.5,-1.04083408558608E-014,1.1555540873125E-014));
#308=CARTESIAN_POINT('',(24.5,9.49999999999999,-4.94379360717251E-017));
#309=CARTESIAN_POINT('',(24.3,-1.76602169678383E-015,1.75298174172872E-015));
#310=CARTESIAN_POINT('',(25.5,0.,1.2056729714399E-015));
#311=CARTESIAN_POINT('',(25.5,8.5,4.51750905202268E-017));
#312=CARTESIAN_POINT('',(24.5,8.67361737988404E-015,1.31561428418081E-014));
#313=CARTESIAN_POINT('',(25.5,8.67361737988404E-016,6.23039180588934E-016));
#314=CARTESIAN_POINT('',(25.5,8.67361737988404E-016,-5.));
#315=CARTESIAN_POINT('',(25.5,-10.45,-10.45));
#316=CARTESIAN_POINT('',(25.5,8.67361737988404E-016,6.23039180588934E-016));
#317=CARTESIAN_POINT('',(54.4974984355438,-1.14932067042596E-014,-1.21377890813074E-014));
#318=CARTESIAN_POINT('',(54.4974984355438,-1.14932067042596E-014,2.99999999999999));
#319=CARTESIAN_POINT('',(52.4999999999999,-1.14932067042596E-014,-1.21377890813074E-014));
#320=CARTESIAN_POINT('',(52.4999999999999,4.52870050440791,1.87106166156431));
#321=CARTESIAN_POINT('',(52.5,-1.14932067042596E-014,-1.21377890813074E-014));
#322=CARTESIAN_POINT('',(-291.5,-1.14932067042596E-014,-1.21377890813074E-014));
#323=CARTESIAN_POINT('',(0.,0.,-4.54));
#324=CARTESIAN_POINT('',(24.4974984355438,-1.14932067042596E-014,-1.21377890813074E-014));
#325=CARTESIAN_POINT('',(24.4974984355438,-1.14932067042596E-014,2.99999999999999));
#326=CARTESIAN_POINT('',(22.6949165784611,-1.14932067042596E-014,-1.21377890813074E-014));
#327=CARTESIAN_POINT('',(24.4974984355438,-1.14932067042596E-014,-1.21377890813074E-014));
#328=CARTESIAN_POINT('',(54.4974984355438,-1.14932067042596E-014,-1.21377890813074E-014));
#329=(
GEOMETRIC_REPRESENTATION_CONTEXT(3)
GLOBAL_UNCERTAINTY_ASSIGNED_CONTEXT((#330))
GLOBAL_UNIT_ASSIGNED_CONTEXT((#336,#332,#331))
REPRESENTATION_CONTEXT('n 01 100 6002 001','TOP_LEVEL_ASSEMBLY_PART')
);
#330=UNCERTAINTY_MEASURE_WITH_UNIT(LENGTH_MEASURE(2.E-005),#336,
'DISTANCE_ACCURACY_VALUE','Maximum Tolerance applied to model');
#331=(
NAMED_UNIT(*)
SI_UNIT($,.STERADIAN.)
SOLID_ANGLE_UNIT()
);
#332=(
CONVERSION_BASED_UNIT('DEGREE',#334)
NAMED_UNIT(#333)
PLANE_ANGLE_UNIT()
);
#333=DIMENSIONAL_EXPONENTS(0.,0.,0.,0.,0.,0.,0.);
#334=PLANE_ANGLE_MEASURE_WITH_UNIT(PLANE_ANGLE_MEASURE(0.0174532925),#335);
#335=(
NAMED_UNIT(*)
PLANE_ANGLE_UNIT()
SI_UNIT($,.RADIAN.)
);
#336=(
LENGTH_UNIT()
NAMED_UNIT(*)
SI_UNIT(.MILLI.,.METRE.)
);
ENDSEC;
END-ISO-10303-21;
