ISO-10303-21;
HEADER;
/* Generated by software containing ST-Developer
 * from STEP Tools, Inc. (www.steptools.com) 
 */
/* OPTION: using custom schema-name function */

FILE_DESCRIPTION(
/* description */ (''),
/* implementation_level */ '2;1');

FILE_NAME(
/* name */ 'n 01 100 6003 001.stp',
/* time_stamp */ '2017-09-13T10:26:14+02:00',
/* author */ (''),
/* organization */ (''),
/* preprocessor_version */ 'ST-DEVELOPER v15',
/* originating_system */ 'SIEMENS PLM Software NX 9.0',
/* authorisation */ '');

FILE_SCHEMA (('CONFIG_CONTROL_DESIGN'));
ENDSEC;

DATA;
#10=SHAPE_REPRESENTATION_RELATIONSHIP('None',
'relationship between n 01 100 6003 001nxm001-05-None and n 01 100 600
3 001nxm001-05-None',#92,#11);
#11=ADVANCED_BREP_SHAPE_REPRESENTATION(
'n 01 100 6003 001nxm001-05-None',(#93),#400);
#12=CC_DESIGN_APPROVAL(#24,(#82));
#13=CC_DESIGN_APPROVAL(#25,(#84));
#14=CC_DESIGN_APPROVAL(#26,(#31));
#15=APPROVAL_PERSON_ORGANIZATION(#69,#24,#18);
#16=APPROVAL_PERSON_ORGANIZATION(#70,#25,#19);
#17=APPROVAL_PERSON_ORGANIZATION(#71,#26,#20);
#18=APPROVAL_ROLE('approver');
#19=APPROVAL_ROLE('approver');
#20=APPROVAL_ROLE('approver');
#21=APPROVAL_DATE_TIME(#39,#24);
#22=APPROVAL_DATE_TIME(#40,#25);
#23=APPROVAL_DATE_TIME(#41,#26);
#24=APPROVAL(#27,' ');
#25=APPROVAL(#28,' ');
#26=APPROVAL(#29,' ');
#27=APPROVAL_STATUS('not_yet_approved');
#28=APPROVAL_STATUS('not_yet_approved');
#29=APPROVAL_STATUS('not_yet_approved');
#30=CC_DESIGN_SECURITY_CLASSIFICATION(#31,(#84));
#31=SECURITY_CLASSIFICATION(' ',' ',#32);
#32=SECURITY_CLASSIFICATION_LEVEL('confidential');
#33=CC_DESIGN_DATE_AND_TIME_ASSIGNMENT(#37,#35,(#82));
#34=CC_DESIGN_DATE_AND_TIME_ASSIGNMENT(#38,#36,(#31));
#35=DATE_TIME_ROLE('creation_date');
#36=DATE_TIME_ROLE('classification_date');
#37=DATE_AND_TIME(#52,#42);
#38=DATE_AND_TIME(#53,#43);
#39=DATE_AND_TIME(#54,#44);
#40=DATE_AND_TIME(#55,#45);
#41=DATE_AND_TIME(#56,#46);
#42=LOCAL_TIME(0,0,0.,#47);
#43=LOCAL_TIME(0,0,0.,#48);
#44=LOCAL_TIME(0,0,0.,#49);
#45=LOCAL_TIME(0,0,0.,#50);
#46=LOCAL_TIME(0,0,0.,#51);
#47=COORDINATED_UNIVERSAL_TIME_OFFSET(0,0,.BEHIND.);
#48=COORDINATED_UNIVERSAL_TIME_OFFSET(0,0,.BEHIND.);
#49=COORDINATED_UNIVERSAL_TIME_OFFSET(0,0,.BEHIND.);
#50=COORDINATED_UNIVERSAL_TIME_OFFSET(0,0,.BEHIND.);
#51=COORDINATED_UNIVERSAL_TIME_OFFSET(0,0,.BEHIND.);
#52=CALENDAR_DATE(0,1,1);
#53=CALENDAR_DATE(0,1,1);
#54=CALENDAR_DATE(0,1,1);
#55=CALENDAR_DATE(0,1,1);
#56=CALENDAR_DATE(0,1,1);
#57=CC_DESIGN_PERSON_AND_ORGANIZATION_ASSIGNMENT(#65,#61,(#82,#84));
#58=CC_DESIGN_PERSON_AND_ORGANIZATION_ASSIGNMENT(#66,#62,(#86));
#59=CC_DESIGN_PERSON_AND_ORGANIZATION_ASSIGNMENT(#67,#63,(#84));
#60=CC_DESIGN_PERSON_AND_ORGANIZATION_ASSIGNMENT(#68,#64,(#31));
#61=PERSON_AND_ORGANIZATION_ROLE('creator');
#62=PERSON_AND_ORGANIZATION_ROLE('design_owner');
#63=PERSON_AND_ORGANIZATION_ROLE('design_supplier');
#64=PERSON_AND_ORGANIZATION_ROLE('classification_officer');
#65=PERSON_AND_ORGANIZATION(#79,#72);
#66=PERSON_AND_ORGANIZATION(#79,#73);
#67=PERSON_AND_ORGANIZATION(#79,#74);
#68=PERSON_AND_ORGANIZATION(#79,#75);
#69=PERSON_AND_ORGANIZATION(#79,#76);
#70=PERSON_AND_ORGANIZATION(#79,#77);
#71=PERSON_AND_ORGANIZATION(#79,#78);
#72=ORGANIZATION(' ',' ',' ');
#73=ORGANIZATION(' ',' ',' ');
#74=ORGANIZATION(' ',' ',' ');
#75=ORGANIZATION(' ',' ',' ');
#76=ORGANIZATION(' ',' ',' ');
#77=ORGANIZATION(' ',' ',' ');
#78=ORGANIZATION(' ',' ',' ');
#79=PERSON(' ',' ',' ',(' '),$,$);
#80=SHAPE_DEFINITION_REPRESENTATION(#81,#92);
#81=PRODUCT_DEFINITION_SHAPE('','',#82);
#82=PRODUCT_DEFINITION(' ','',#84,#83);
#83=DESIGN_CONTEXT('',#91,'design');
#84=PRODUCT_DEFINITION_FORMATION_WITH_SPECIFIED_SOURCE(' ',' ',#86,
 .NOT_KNOWN.);
#85=PRODUCT_RELATED_PRODUCT_CATEGORY('detail','',(#86));
#86=PRODUCT('n 01 100 6003 001nxm001-05','n 01 100 6003 001nxm001-05',
' ',(#89));
#87=PRODUCT_CATEGORY('part',' ');
#88=PRODUCT_CATEGORY(' ','');
#89=MECHANICAL_CONTEXT(' ',#91,'mechanical');
#90=APPLICATION_PROTOCOL_DEFINITION('international standard',
'config_control_design',2010,#91);
#91=APPLICATION_CONTEXT(
'configuration controlled 3D designs of mechanical parts and assemblie
s');
#92=SHAPE_REPRESENTATION('n 01 100 6003 001nxm001-05-None',(#243),#400);
#93=MANIFOLD_SOLID_BREP('',#94);
#94=CLOSED_SHELL('',(#109,#110,#111,#112,#113,#114,#115,#116,#117,#118,
#119,#120,#121,#122));
#95=VERTEX_LOOP('',#216);
#96=TOROIDAL_SURFACE('',#265,2.90000000000004,2.);
#97=FACE_OUTER_BOUND('',#165,.T.);
#98=(
BOUNDED_SURFACE()
B_SPLINE_SURFACE(2,2,((#341,#342,#343,#344,#345,#346,#347),(#348,#349,#350,
#351,#352,#353,#354),(#355,#356,#357,#358,#359,#360,#361),(#362,#363,#364,
#365,#366,#367,#368),(#369,#370,#371,#372,#373,#374,#375)),
 .UNSPECIFIED.,.F.,.T.,.F.)
B_SPLINE_SURFACE_WITH_KNOTS((3,2,3),(1,2,2,2,2,1),(0.,0.5,1.),(-0.333333333333332,
0.,0.333333333333334,0.666666666666668,1.,1.33333333333333),
 .UNSPECIFIED.)
GEOMETRIC_REPRESENTATION_ITEM()
RATIONAL_B_SPLINE_SURFACE(((1.,0.5,1.,0.5,1.,0.5,1.),(0.853553390593274,
0.426776695296637,0.853553390593274,0.426776695296637,0.853553390593274,
0.426776695296637,0.853553390593274),(0.853553390593274,0.426776695296637,
0.853553390593274,0.426776695296637,0.853553390593274,0.426776695296637,
0.853553390593274),(0.853553390593274,0.426776695296637,0.853553390593274,
0.426776695296637,0.853553390593274,0.426776695296637,0.853553390593274),
(1.,0.5,1.,0.5,1.,0.5,1.)))
REPRESENTATION_ITEM('')
SURFACE()
);
#99=PLANE('',#250);
#100=PLANE('',#255);
#101=PLANE('',#259);
#102=PLANE('',#262);
#103=CYLINDRICAL_SURFACE('',#248,8.25);
#104=CYLINDRICAL_SURFACE('',#252,9.5);
#105=CYLINDRICAL_SURFACE('',#257,5.);
#106=CYLINDRICAL_SURFACE('',#260,9.49999992933121);
#107=CYLINDRICAL_SURFACE('',#266,4.90000000000004);
#108=CYLINDRICAL_SURFACE('',#269,3.);
#109=ADVANCED_FACE('',(#125,#126),#123,.T.);
#110=ADVANCED_FACE('',(#127,#128),#103,.T.);
#111=ADVANCED_FACE('',(#129,#130),#99,.T.);
#112=ADVANCED_FACE('',(#131,#132),#104,.T.);
#113=ADVANCED_FACE('',(#133,#134),#98,.T.);
#114=ADVANCED_FACE('',(#135,#136),#100,.T.);
#115=ADVANCED_FACE('',(#137,#138),#105,.T.);
#116=ADVANCED_FACE('',(#97),#101,.T.);
#117=ADVANCED_FACE('',(#139,#140),#106,.T.);
#118=ADVANCED_FACE('',(#141,#142),#102,.T.);
#119=ADVANCED_FACE('',(#143,#144),#96,.T.);
#120=ADVANCED_FACE('',(#145,#146),#107,.T.);
#121=ADVANCED_FACE('',(#147,#148),#124,.F.);
#122=ADVANCED_FACE('',(#149,#150),#108,.F.);
#123=CONICAL_SURFACE('',#246,8.25,30.0000000000001);
#124=CONICAL_SURFACE('',#268,3.,59.);
#125=FACE_BOUND('',#151,.T.);
#126=FACE_BOUND('',#152,.T.);
#127=FACE_BOUND('',#153,.T.);
#128=FACE_BOUND('',#154,.T.);
#129=FACE_BOUND('',#155,.T.);
#130=FACE_BOUND('',#156,.T.);
#131=FACE_BOUND('',#157,.T.);
#132=FACE_BOUND('',#158,.T.);
#133=FACE_BOUND('',#159,.T.);
#134=FACE_BOUND('',#160,.T.);
#135=FACE_BOUND('',#161,.T.);
#136=FACE_BOUND('',#162,.T.);
#137=FACE_BOUND('',#163,.T.);
#138=FACE_BOUND('',#164,.T.);
#139=FACE_BOUND('',#166,.T.);
#140=FACE_BOUND('',#167,.T.);
#141=FACE_BOUND('',#168,.T.);
#142=FACE_BOUND('',#169,.T.);
#143=FACE_BOUND('',#170,.T.);
#144=FACE_BOUND('',#171,.T.);
#145=FACE_BOUND('',#172,.T.);
#146=FACE_BOUND('',#173,.T.);
#147=FACE_BOUND('',#174,.T.);
#148=FACE_BOUND('',#95,.T.);
#149=FACE_BOUND('',#175,.T.);
#150=FACE_BOUND('',#176,.T.);
#151=EDGE_LOOP('',(#177));
#152=EDGE_LOOP('',(#178));
#153=EDGE_LOOP('',(#179));
#154=EDGE_LOOP('',(#180));
#155=EDGE_LOOP('',(#181));
#156=EDGE_LOOP('',(#182));
#157=EDGE_LOOP('',(#183));
#158=EDGE_LOOP('',(#184));
#159=EDGE_LOOP('',(#185));
#160=EDGE_LOOP('',(#186));
#161=EDGE_LOOP('',(#187));
#162=EDGE_LOOP('',(#188));
#163=EDGE_LOOP('',(#189));
#164=EDGE_LOOP('',(#190));
#165=EDGE_LOOP('',(#191));
#166=EDGE_LOOP('',(#192));
#167=EDGE_LOOP('',(#193));
#168=EDGE_LOOP('',(#194));
#169=EDGE_LOOP('',(#195));
#170=EDGE_LOOP('',(#196));
#171=EDGE_LOOP('',(#197));
#172=EDGE_LOOP('',(#198));
#173=EDGE_LOOP('',(#199));
#174=EDGE_LOOP('',(#200));
#175=EDGE_LOOP('',(#201));
#176=EDGE_LOOP('',(#202));
#177=ORIENTED_EDGE('',*,*,#217,.F.);
#178=ORIENTED_EDGE('',*,*,#218,.F.);
#179=ORIENTED_EDGE('',*,*,#217,.T.);
#180=ORIENTED_EDGE('',*,*,#219,.F.);
#181=ORIENTED_EDGE('',*,*,#219,.T.);
#182=ORIENTED_EDGE('',*,*,#220,.T.);
#183=ORIENTED_EDGE('',*,*,#220,.F.);
#184=ORIENTED_EDGE('',*,*,#221,.T.);
#185=ORIENTED_EDGE('',*,*,#222,.F.);
#186=ORIENTED_EDGE('',*,*,#221,.F.);
#187=ORIENTED_EDGE('',*,*,#223,.F.);
#188=ORIENTED_EDGE('',*,*,#222,.T.);
#189=ORIENTED_EDGE('',*,*,#223,.T.);
#190=ORIENTED_EDGE('',*,*,#224,.F.);
#191=ORIENTED_EDGE('',*,*,#225,.T.);
#192=ORIENTED_EDGE('',*,*,#218,.T.);
#193=ORIENTED_EDGE('',*,*,#225,.F.);
#194=ORIENTED_EDGE('',*,*,#226,.T.);
#195=ORIENTED_EDGE('',*,*,#224,.T.);
#196=ORIENTED_EDGE('',*,*,#227,.F.);
#197=ORIENTED_EDGE('',*,*,#228,.F.);
#198=ORIENTED_EDGE('',*,*,#226,.F.);
#199=ORIENTED_EDGE('',*,*,#228,.T.);
#200=ORIENTED_EDGE('',*,*,#229,.T.);
#201=ORIENTED_EDGE('',*,*,#227,.T.);
#202=ORIENTED_EDGE('',*,*,#229,.F.);
#203=VERTEX_POINT('',#326);
#204=VERTEX_POINT('',#328);
#205=VERTEX_POINT('',#331);
#206=VERTEX_POINT('',#334);
#207=VERTEX_POINT('',#337);
#208=VERTEX_POINT('',#340);
#209=VERTEX_POINT('',#377);
#210=VERTEX_POINT('',#380);
#211=VERTEX_POINT('',#383);
#212=VERTEX_POINT('',#387);
#213=VERTEX_POINT('',#390);
#214=VERTEX_POINT('',#392);
#215=VERTEX_POINT('',#396);
#216=VERTEX_POINT('',#397);
#217=EDGE_CURVE('',#203,#203,#230,.T.);
#218=EDGE_CURVE('',#204,#204,#231,.T.);
#219=EDGE_CURVE('',#205,#205,#232,.T.);
#220=EDGE_CURVE('',#206,#206,#233,.T.);
#221=EDGE_CURVE('',#207,#207,#234,.T.);
#222=EDGE_CURVE('',#208,#208,#235,.T.);
#223=EDGE_CURVE('',#209,#209,#236,.T.);
#224=EDGE_CURVE('',#210,#210,#237,.T.);
#225=EDGE_CURVE('',#211,#211,#238,.T.);
#226=EDGE_CURVE('',#212,#212,#239,.T.);
#227=EDGE_CURVE('',#213,#213,#240,.T.);
#228=EDGE_CURVE('',#214,#214,#241,.T.);
#229=EDGE_CURVE('',#215,#215,#242,.T.);
#230=CIRCLE('',#244,8.25);
#231=CIRCLE('',#245,9.49999992933122);
#232=CIRCLE('',#247,8.25);
#233=CIRCLE('',#249,9.5);
#234=CIRCLE('',#251,9.5);
#235=CIRCLE('',#253,8.5);
#236=CIRCLE('',#254,5.);
#237=CIRCLE('',#256,5.);
#238=CIRCLE('',#258,9.49999992933122);
#239=CIRCLE('',#261,4.90000000000004);
#240=CIRCLE('',#263,3.);
#241=CIRCLE('',#264,4.90000000000004);
#242=CIRCLE('',#267,3.);
#243=AXIS2_PLACEMENT_3D('',#324,#270,#271);
#244=AXIS2_PLACEMENT_3D('',#325,#272,#273);
#245=AXIS2_PLACEMENT_3D('',#327,#274,#275);
#246=AXIS2_PLACEMENT_3D('',#329,#276,#277);
#247=AXIS2_PLACEMENT_3D('',#330,#278,#279);
#248=AXIS2_PLACEMENT_3D('',#332,#280,#281);
#249=AXIS2_PLACEMENT_3D('',#333,#282,#283);
#250=AXIS2_PLACEMENT_3D('',#335,#284,#285);
#251=AXIS2_PLACEMENT_3D('',#336,#286,#287);
#252=AXIS2_PLACEMENT_3D('',#338,#288,#289);
#253=AXIS2_PLACEMENT_3D('',#339,#290,#291);
#254=AXIS2_PLACEMENT_3D('',#376,#292,#293);
#255=AXIS2_PLACEMENT_3D('',#378,#294,#295);
#256=AXIS2_PLACEMENT_3D('',#379,#296,#297);
#257=AXIS2_PLACEMENT_3D('',#381,#298,#299);
#258=AXIS2_PLACEMENT_3D('',#382,#300,#301);
#259=AXIS2_PLACEMENT_3D('',#384,#302,#303);
#260=AXIS2_PLACEMENT_3D('',#385,#304,#305);
#261=AXIS2_PLACEMENT_3D('',#386,#306,#307);
#262=AXIS2_PLACEMENT_3D('',#388,#308,#309);
#263=AXIS2_PLACEMENT_3D('',#389,#310,#311);
#264=AXIS2_PLACEMENT_3D('',#391,#312,#313);
#265=AXIS2_PLACEMENT_3D('',#393,#314,#315);
#266=AXIS2_PLACEMENT_3D('',#394,#316,#317);
#267=AXIS2_PLACEMENT_3D('',#395,#318,#319);
#268=AXIS2_PLACEMENT_3D('',#398,#320,#321);
#269=AXIS2_PLACEMENT_3D('',#399,#322,#323);
#270=DIRECTION('',(0.,0.,1.));
#271=DIRECTION('',(1.,0.,0.));
#272=DIRECTION('',(1.,0.,0.));
#273=DIRECTION('',(0.,1.,0.));
#274=DIRECTION('',(-1.,0.,0.));
#275=DIRECTION('',(0.,1.,-1.19688626180923E-015));
#276=DIRECTION('',(-1.,0.,0.));
#277=DIRECTION('',(7.10951917441175E-017,1.,-1.53956725287886E-016));
#278=DIRECTION('',(1.,0.,0.));
#279=DIRECTION('',(0.,0.,1.));
#280=DIRECTION('',(1.,0.,0.));
#281=DIRECTION('',(0.,1.,0.));
#282=DIRECTION('',(-1.,-5.41044358979123E-017,-2.81134895670112E-016));
#283=DIRECTION('',(0.,1.,-5.41044358979121E-016));
#284=DIRECTION('',(-1.,0.,0.));
#285=DIRECTION('',(0.,1.,0.));
#286=DIRECTION('',(-1.,-1.4371490785383E-016,-5.97411653298988E-016));
#287=DIRECTION('',(0.,1.,-1.22157671675755E-015));
#288=DIRECTION('',(1.,2.0865480538016E-016,-3.61400724161834E-016));
#289=DIRECTION('',(-3.65204942310907E-016,1.,-1.78818066642573E-016));
#290=DIRECTION('',(1.,0.,0.));
#291=DIRECTION('',(0.,1.,-1.36529162461138E-016));
#292=DIRECTION('',(1.,0.,0.));
#293=DIRECTION('',(0.,0.,-1.));
#294=DIRECTION('',(1.,0.,0.));
#295=DIRECTION('',(0.,1.,0.));
#296=DIRECTION('',(1.,0.,0.));
#297=DIRECTION('',(0.,0.,-1.));
#298=DIRECTION('',(1.,0.,0.));
#299=DIRECTION('',(0.,1.,1.24607836117787E-016));
#300=DIRECTION('',(-1.,6.59908953845636E-017,-5.45493719196538E-033));
#301=DIRECTION('',(6.59908953845636E-017,1.,-1.29850647120925E-015));
#302=DIRECTION('',(-1.,0.,0.));
#303=DIRECTION('',(0.,1.,0.));
#304=DIRECTION('',(1.,0.,0.));
#305=DIRECTION('',(0.,1.,8.54918758435162E-017));
#306=DIRECTION('',(-1.,0.,0.));
#307=DIRECTION('',(0.,0.924224592736303,0.381849318686593));
#308=DIRECTION('',(1.,0.,0.));
#309=DIRECTION('',(0.,1.,0.));
#310=DIRECTION('',(1.,0.,0.));
#311=DIRECTION('',(0.,0.,1.));
#312=DIRECTION('',(-1.,0.,0.));
#313=DIRECTION('',(0.,0.924224592736303,0.381849318686593));
#314=DIRECTION('',(-1.,0.,0.));
#315=DIRECTION('',(0.,0.924224592736303,0.381849318686593));
#316=DIRECTION('',(-1.,0.,0.));
#317=DIRECTION('',(0.,0.924224592736303,0.381849318686593));
#318=DIRECTION('',(1.,0.,0.));
#319=DIRECTION('',(0.,0.,1.));
#320=DIRECTION('',(1.,0.,0.));
#321=DIRECTION('',(-4.99416730838059E-017,0.,-1.));
#322=DIRECTION('',(-1.,0.,0.));
#323=DIRECTION('',(0.,0.,1.));
#324=CARTESIAN_POINT('',(0.,0.,0.));
#325=CARTESIAN_POINT('',(21.8,0.,0.));
#326=CARTESIAN_POINT('',(21.8,8.25,0.));
#327=CARTESIAN_POINT('',(19.6349366129408,-6.93889390390723E-015,1.13704194026052E-014));
#328=CARTESIAN_POINT('',(19.6349366129408,9.49999992933121,-1.38666955995881E-029));
#329=CARTESIAN_POINT('',(21.8,1.7347234759768E-015,1.36636593149003E-015));
#330=CARTESIAN_POINT('',(24.3,-1.7347234759768E-015,0.));
#331=CARTESIAN_POINT('',(24.3,-1.7347234759768E-015,8.25));
#332=CARTESIAN_POINT('',(21.8,-1.7347234759768E-015,0.));
#333=CARTESIAN_POINT('',(24.3,-5.20417042793042E-015,5.13992141030165E-015));
#334=CARTESIAN_POINT('',(24.3,9.49999999999999,0.));
#335=CARTESIAN_POINT('',(24.3,-10.45,10.45));
#336=CARTESIAN_POINT('',(24.5,-1.04083408558608E-014,1.1555540873125E-014));
#337=CARTESIAN_POINT('',(24.5,9.49999999999999,-4.94379360717652E-017));
#338=CARTESIAN_POINT('',(24.3,-1.76602169678383E-015,1.75298174172872E-015));
#339=CARTESIAN_POINT('',(25.5,0.,1.2056729714399E-015));
#340=CARTESIAN_POINT('',(25.5,8.5,4.51750905202268E-017));
#341=CARTESIAN_POINT('',(25.5,8.5,4.51750905202293E-017));
#342=CARTESIAN_POINT('',(25.5,8.5,14.7224318643355));
#343=CARTESIAN_POINT('',(25.5,-4.25,7.36121593216773));
#344=CARTESIAN_POINT('',(25.5,-17.,1.17705332975443E-014));
#345=CARTESIAN_POINT('',(25.5,-4.25,-7.36121593216773));
#346=CARTESIAN_POINT('',(25.5,8.5,-14.7224318643355));
#347=CARTESIAN_POINT('',(25.5,8.5,4.51750905202293E-017));
#348=CARTESIAN_POINT('',(25.5,8.91421356237309,5.98509172865687E-018));
#349=CARTESIAN_POINT('',(25.5,8.9142135623731,15.4398707995498));
#350=CARTESIAN_POINT('',(25.5,-4.45710678118655,7.71993539977489));
#351=CARTESIAN_POINT('',(25.5,-17.8284271247462,1.23027318155801E-014));
#352=CARTESIAN_POINT('',(25.5,-4.45710678118656,-7.71993539977488));
#353=CARTESIAN_POINT('',(25.5,8.91421356237308,-15.4398707995498));
#354=CARTESIAN_POINT('',(25.5,8.91421356237309,5.98509172865687E-018));
#355=CARTESIAN_POINT('',(25.2071067811866,9.20710678118655,-2.17264221715566E-017));
#356=CARTESIAN_POINT('',(25.2071067811865,9.20710678118656,15.9471767357271));
#357=CARTESIAN_POINT('',(25.2071067811866,-4.60355339059327,7.97358836786352));
#358=CARTESIAN_POINT('',(25.2071067811865,-18.4142135623731,1.26790529966206E-014));
#359=CARTESIAN_POINT('',(25.2071067811866,-4.60355339059328,-7.97358836786352));
#360=CARTESIAN_POINT('',(25.2071067811865,9.20710678118653,-15.9471767357271));
#361=CARTESIAN_POINT('',(25.2071067811866,9.20710678118655,-2.17264221715566E-017));
#362=CARTESIAN_POINT('',(24.9142135623731,9.5,-4.94379360717701E-017));
#363=CARTESIAN_POINT('',(24.9142135623731,9.50000000000001,16.4544826719043));
#364=CARTESIAN_POINT('',(24.9142135623731,-4.75,8.22724133595217));
#365=CARTESIAN_POINT('',(24.9142135623731,-19.,1.30553741776611E-014));
#366=CARTESIAN_POINT('',(24.9142135623731,-4.75000000000001,-8.22724133595217));
#367=CARTESIAN_POINT('',(24.9142135623731,9.49999999999999,-16.4544826719044));
#368=CARTESIAN_POINT('',(24.9142135623731,9.5,-4.94379360717701E-017));
#369=CARTESIAN_POINT('',(24.5,9.5,-4.94379360717701E-017));
#370=CARTESIAN_POINT('',(24.5,9.5,16.4544826719043));
#371=CARTESIAN_POINT('',(24.5,-4.75,8.22724133595217));
#372=CARTESIAN_POINT('',(24.5,-19.,1.30553741776611E-014));
#373=CARTESIAN_POINT('',(24.5,-4.75,-8.22724133595217));
#374=CARTESIAN_POINT('',(24.5,9.5,-16.4544826719043));
#375=CARTESIAN_POINT('',(24.5,9.5,-4.94379360717701E-017));
#376=CARTESIAN_POINT('',(25.5,0.,-6.23039180588935E-016));
#377=CARTESIAN_POINT('',(25.5,0.,-5.));
#378=CARTESIAN_POINT('',(25.5,-10.45,-10.45));
#379=CARTESIAN_POINT('',(50.,8.67361737988404E-016,6.23039180588934E-016));
#380=CARTESIAN_POINT('',(50.,8.67361737988404E-016,-5.));
#381=CARTESIAN_POINT('',(25.5,0.,-6.23039180588935E-016));
#382=CARTESIAN_POINT('',(6.26913501489857E-016,-8.67361737988404E-015,1.2335811384724E-014));
#383=CARTESIAN_POINT('',(1.25382700297972E-015,9.49999992933121,1.07852076885685E-029));
#384=CARTESIAN_POINT('',(0.,-10.4499999222643,10.4499999222643));
#385=CARTESIAN_POINT('',(0.,6.93889390390723E-015,-8.12172814471797E-016));
#386=CARTESIAN_POINT('',(49.9999999999999,-1.14932067042596E-014,-1.21377890813074E-014));
#387=CARTESIAN_POINT('',(49.9999999999999,4.52870050440791,1.87106166156431));
#388=CARTESIAN_POINT('',(50.,-5.28,-5.28));
#389=CARTESIAN_POINT('',(54.4974984355438,-1.14932067042596E-014,-1.21377890813074E-014));
#390=CARTESIAN_POINT('',(54.4974984355438,-1.14932067042596E-014,2.99999999999999));
#391=CARTESIAN_POINT('',(52.4999999999999,-1.14932067042596E-014,-1.21377890813074E-014));
#392=CARTESIAN_POINT('',(52.4999999999999,4.52870050440791,1.87106166156431));
#393=CARTESIAN_POINT('',(52.5,-1.14932067042596E-014,-1.21377890813074E-014));
#394=CARTESIAN_POINT('',(-291.5,-1.14932067042596E-014,-1.21377890813074E-014));
#395=CARTESIAN_POINT('',(24.4974984355438,-1.14932067042596E-014,-1.21377890813074E-014));
#396=CARTESIAN_POINT('',(24.4974984355438,-1.14932067042596E-014,2.99999999999999));
#397=CARTESIAN_POINT('',(22.6949165784611,-1.14932067042596E-014,-1.21377890813074E-014));
#398=CARTESIAN_POINT('',(24.4974984355438,-1.14932067042596E-014,-1.21377890813074E-014));
#399=CARTESIAN_POINT('',(54.4974984355438,-1.14932067042596E-014,-1.21377890813074E-014));
#400=(
GEOMETRIC_REPRESENTATION_CONTEXT(3)
GLOBAL_UNCERTAINTY_ASSIGNED_CONTEXT((#401))
GLOBAL_UNIT_ASSIGNED_CONTEXT((#407,#403,#402))
REPRESENTATION_CONTEXT('n 01 100 6003 001','TOP_LEVEL_ASSEMBLY_PART')
);
#401=UNCERTAINTY_MEASURE_WITH_UNIT(LENGTH_MEASURE(2.E-005),#407,
'DISTANCE_ACCURACY_VALUE','Maximum Tolerance applied to model');
#402=(
NAMED_UNIT(*)
SI_UNIT($,.STERADIAN.)
SOLID_ANGLE_UNIT()
);
#403=(
CONVERSION_BASED_UNIT('DEGREE',#405)
NAMED_UNIT(#404)
PLANE_ANGLE_UNIT()
);
#404=DIMENSIONAL_EXPONENTS(0.,0.,0.,0.,0.,0.,0.);
#405=PLANE_ANGLE_MEASURE_WITH_UNIT(PLANE_ANGLE_MEASURE(0.0174532925),#406);
#406=(
NAMED_UNIT(*)
PLANE_ANGLE_UNIT()
SI_UNIT($,.RADIAN.)
);
#407=(
LENGTH_UNIT()
NAMED_UNIT(*)
SI_UNIT(.MILLI.,.METRE.)
);
ENDSEC;
END-ISO-10303-21;
