ISO-10303-21;
HEADER;
/* Generated by software containing ST-Developer
 * from STEP Tools, Inc. (www.steptools.com) 
 */
/* OPTION: using custom schema-name function */

FILE_DESCRIPTION(
/* description */ (''),
/* implementation_level */ '2;1');

FILE_NAME(
/* name */ 'n 01 100 x0xx 001nxc001-01.stp',
/* time_stamp */ '2021-04-20T13:17:46+02:00',
/* author */ (''),
/* organization */ (''),
/* preprocessor_version */ 'ST-DEVELOPER v16.7',
/* originating_system */ 'SIEMENS PLM Software NX 12.0',
/* authorisation */ '');

FILE_SCHEMA (('AUTOMOTIVE_DESIGN { 1 0 10303 214 3 1 1 1 }'));
ENDSEC;

DATA;
#10=SHAPE_REPRESENTATION_RELATIONSHIP('None',
'relationship between n 01 100 x0xx 001nxc001-01-None and n 01 100 x0x
x 001nxc001-01-None',#22,#11);
#11=ADVANCED_BREP_SHAPE_REPRESENTATION(
'n 01 100 x0xx 001nxc001-01-None',(#125),#382);
#12=SHAPE_DEFINITION_REPRESENTATION(#13,#22);
#13=PRODUCT_DEFINITION_SHAPE('','',#14);
#14=PRODUCT_DEFINITION(' ','',#16,#15);
#15=PRODUCT_DEFINITION_CONTEXT('part definition',#21,'design');
#16=PRODUCT_DEFINITION_FORMATION_WITH_SPECIFIED_SOURCE(' ',' ',#18,
 .NOT_KNOWN.);
#17=PRODUCT_RELATED_PRODUCT_CATEGORY('part','',(#18));
#18=PRODUCT('n 01 100 x0xx 001nxc001-01','n 01 100 x0xx 001nxc001-01',
' ',(#19));
#19=PRODUCT_CONTEXT(' ',#21,'mechanical');
#20=APPLICATION_PROTOCOL_DEFINITION('international standard',
'automotive_design',2010,#21);
#21=APPLICATION_CONTEXT(
'core data for automotive mechanical design processes');
#22=SHAPE_REPRESENTATION('n 01 100 x0xx 001nxc001-01-None',(#264),#382);
#23=OVER_RIDING_STYLED_ITEM('',(#39),#136,#37);
#24=OVER_RIDING_STYLED_ITEM('',(#40),#137,#37);
#25=OVER_RIDING_STYLED_ITEM('',(#41),#138,#37);
#26=OVER_RIDING_STYLED_ITEM('',(#42),#139,#37);
#27=OVER_RIDING_STYLED_ITEM('',(#43),#140,#37);
#28=OVER_RIDING_STYLED_ITEM('',(#44),#141,#37);
#29=OVER_RIDING_STYLED_ITEM('',(#45),#142,#37);
#30=OVER_RIDING_STYLED_ITEM('',(#46),#143,#37);
#31=OVER_RIDING_STYLED_ITEM('',(#47),#144,#37);
#32=OVER_RIDING_STYLED_ITEM('',(#48),#145,#37);
#33=OVER_RIDING_STYLED_ITEM('',(#49),#146,#37);
#34=OVER_RIDING_STYLED_ITEM('',(#50),#147,#37);
#35=OVER_RIDING_STYLED_ITEM('',(#51),#148,#37);
#36=PRESENTATION_LAYER_ASSIGNMENT('1','Layer 1',(#125));
#37=STYLED_ITEM('',(#38),#125);
#38=PRESENTATION_STYLE_ASSIGNMENT((#52));
#39=PRESENTATION_STYLE_ASSIGNMENT((#53));
#40=PRESENTATION_STYLE_ASSIGNMENT((#54));
#41=PRESENTATION_STYLE_ASSIGNMENT((#55));
#42=PRESENTATION_STYLE_ASSIGNMENT((#56));
#43=PRESENTATION_STYLE_ASSIGNMENT((#57));
#44=PRESENTATION_STYLE_ASSIGNMENT((#58));
#45=PRESENTATION_STYLE_ASSIGNMENT((#59));
#46=PRESENTATION_STYLE_ASSIGNMENT((#60));
#47=PRESENTATION_STYLE_ASSIGNMENT((#61));
#48=PRESENTATION_STYLE_ASSIGNMENT((#62));
#49=PRESENTATION_STYLE_ASSIGNMENT((#63));
#50=PRESENTATION_STYLE_ASSIGNMENT((#64));
#51=PRESENTATION_STYLE_ASSIGNMENT((#65));
#52=SURFACE_STYLE_USAGE(.BOTH.,#66);
#53=SURFACE_STYLE_USAGE(.BOTH.,#67);
#54=SURFACE_STYLE_USAGE(.BOTH.,#68);
#55=SURFACE_STYLE_USAGE(.BOTH.,#69);
#56=SURFACE_STYLE_USAGE(.BOTH.,#70);
#57=SURFACE_STYLE_USAGE(.BOTH.,#71);
#58=SURFACE_STYLE_USAGE(.BOTH.,#72);
#59=SURFACE_STYLE_USAGE(.BOTH.,#73);
#60=SURFACE_STYLE_USAGE(.BOTH.,#74);
#61=SURFACE_STYLE_USAGE(.BOTH.,#75);
#62=SURFACE_STYLE_USAGE(.BOTH.,#76);
#63=SURFACE_STYLE_USAGE(.BOTH.,#77);
#64=SURFACE_STYLE_USAGE(.BOTH.,#78);
#65=SURFACE_STYLE_USAGE(.BOTH.,#79);
#66=SURFACE_SIDE_STYLE('',(#80));
#67=SURFACE_SIDE_STYLE('',(#81));
#68=SURFACE_SIDE_STYLE('',(#82));
#69=SURFACE_SIDE_STYLE('',(#83));
#70=SURFACE_SIDE_STYLE('',(#84));
#71=SURFACE_SIDE_STYLE('',(#85));
#72=SURFACE_SIDE_STYLE('',(#86));
#73=SURFACE_SIDE_STYLE('',(#87));
#74=SURFACE_SIDE_STYLE('',(#88));
#75=SURFACE_SIDE_STYLE('',(#89));
#76=SURFACE_SIDE_STYLE('',(#90));
#77=SURFACE_SIDE_STYLE('',(#91));
#78=SURFACE_SIDE_STYLE('',(#92));
#79=SURFACE_SIDE_STYLE('',(#93));
#80=SURFACE_STYLE_FILL_AREA(#94);
#81=SURFACE_STYLE_FILL_AREA(#95);
#82=SURFACE_STYLE_FILL_AREA(#96);
#83=SURFACE_STYLE_FILL_AREA(#97);
#84=SURFACE_STYLE_FILL_AREA(#98);
#85=SURFACE_STYLE_FILL_AREA(#99);
#86=SURFACE_STYLE_FILL_AREA(#100);
#87=SURFACE_STYLE_FILL_AREA(#101);
#88=SURFACE_STYLE_FILL_AREA(#102);
#89=SURFACE_STYLE_FILL_AREA(#103);
#90=SURFACE_STYLE_FILL_AREA(#104);
#91=SURFACE_STYLE_FILL_AREA(#105);
#92=SURFACE_STYLE_FILL_AREA(#106);
#93=SURFACE_STYLE_FILL_AREA(#107);
#94=FILL_AREA_STYLE('',(#108));
#95=FILL_AREA_STYLE('',(#109));
#96=FILL_AREA_STYLE('',(#110));
#97=FILL_AREA_STYLE('',(#111));
#98=FILL_AREA_STYLE('',(#112));
#99=FILL_AREA_STYLE('',(#113));
#100=FILL_AREA_STYLE('',(#114));
#101=FILL_AREA_STYLE('',(#115));
#102=FILL_AREA_STYLE('',(#116));
#103=FILL_AREA_STYLE('',(#117));
#104=FILL_AREA_STYLE('',(#118));
#105=FILL_AREA_STYLE('',(#119));
#106=FILL_AREA_STYLE('',(#120));
#107=FILL_AREA_STYLE('',(#121));
#108=FILL_AREA_STYLE_COLOUR('',#122);
#109=FILL_AREA_STYLE_COLOUR('',#123);
#110=FILL_AREA_STYLE_COLOUR('',#123);
#111=FILL_AREA_STYLE_COLOUR('',#123);
#112=FILL_AREA_STYLE_COLOUR('',#123);
#113=FILL_AREA_STYLE_COLOUR('',#123);
#114=FILL_AREA_STYLE_COLOUR('',#123);
#115=FILL_AREA_STYLE_COLOUR('',#123);
#116=FILL_AREA_STYLE_COLOUR('',#123);
#117=FILL_AREA_STYLE_COLOUR('',#123);
#118=FILL_AREA_STYLE_COLOUR('',#123);
#119=FILL_AREA_STYLE_COLOUR('',#123);
#120=FILL_AREA_STYLE_COLOUR('',#124);
#121=FILL_AREA_STYLE_COLOUR('',#124);
#122=COLOUR_RGB('Medium Steel',0.596063172350652,0.666666666666667,0.686259250782025);
#123=COLOUR_RGB('Deep Orange',1.,0.4,0.);
#124=COLOUR_RGB('Orange',1.,0.6,0.);
#125=MANIFOLD_SOLID_BREP('',#126);
#126=CLOSED_SHELL('',(#136,#137,#138,#139,#140,#141,#142,#143,#144,#145,
#146,#147,#148));
#127=TOROIDAL_SURFACE('',#289,3.,2.);
#128=FACE_OUTER_BOUND('',#200,.T.);
#129=VERTEX_LOOP('',#236);
#130=PLANE('',#274);
#131=PLANE('',#277);
#132=PLANE('',#285);
#133=PLANE('',#288);
#134=CONICAL_SURFACE('',#270,7.25,29.9999999999999);
#135=CONICAL_SURFACE('',#281,3.,60.);
#136=ADVANCED_FACE('',(#155,#156),#149,.T.);
#137=ADVANCED_FACE('',(#157,#158),#134,.T.);
#138=ADVANCED_FACE('',(#159,#160),#150,.T.);
#139=ADVANCED_FACE('',(#161,#162),#130,.T.);
#140=ADVANCED_FACE('',(#163,#164),#151,.T.);
#141=ADVANCED_FACE('',(#165,#166),#131,.T.);
#142=ADVANCED_FACE('',(#167,#168),#152,.T.);
#143=ADVANCED_FACE('',(#169,#170),#135,.F.);
#144=ADVANCED_FACE('',(#171,#172),#153,.F.);
#145=ADVANCED_FACE('',(#173,#174),#132,.T.);
#146=ADVANCED_FACE('',(#175,#176),#154,.T.);
#147=ADVANCED_FACE('',(#128),#133,.F.);
#148=ADVANCED_FACE('',(#177,#178),#127,.T.);
#149=CYLINDRICAL_SURFACE('',#267,5.);
#150=CYLINDRICAL_SURFACE('',#272,8.25);
#151=CYLINDRICAL_SURFACE('',#276,9.5);
#152=CYLINDRICAL_SURFACE('',#279,5.);
#153=CYLINDRICAL_SURFACE('',#283,5.5);
#154=CYLINDRICAL_SURFACE('',#286,7.25);
#155=FACE_BOUND('',#179,.T.);
#156=FACE_BOUND('',#180,.T.);
#157=FACE_BOUND('',#181,.T.);
#158=FACE_BOUND('',#182,.T.);
#159=FACE_BOUND('',#183,.T.);
#160=FACE_BOUND('',#184,.T.);
#161=FACE_BOUND('',#185,.T.);
#162=FACE_BOUND('',#186,.T.);
#163=FACE_BOUND('',#187,.T.);
#164=FACE_BOUND('',#188,.T.);
#165=FACE_BOUND('',#189,.T.);
#166=FACE_BOUND('',#190,.T.);
#167=FACE_BOUND('',#191,.T.);
#168=FACE_BOUND('',#192,.T.);
#169=FACE_BOUND('',#193,.T.);
#170=FACE_BOUND('',#129,.T.);
#171=FACE_BOUND('',#194,.T.);
#172=FACE_BOUND('',#195,.T.);
#173=FACE_BOUND('',#196,.T.);
#174=FACE_BOUND('',#197,.T.);
#175=FACE_BOUND('',#198,.T.);
#176=FACE_BOUND('',#199,.T.);
#177=FACE_BOUND('',#201,.T.);
#178=FACE_BOUND('',#202,.T.);
#179=EDGE_LOOP('',(#203));
#180=EDGE_LOOP('',(#204));
#181=EDGE_LOOP('',(#205));
#182=EDGE_LOOP('',(#206));
#183=EDGE_LOOP('',(#207));
#184=EDGE_LOOP('',(#208));
#185=EDGE_LOOP('',(#209));
#186=EDGE_LOOP('',(#210));
#187=EDGE_LOOP('',(#211));
#188=EDGE_LOOP('',(#212));
#189=EDGE_LOOP('',(#213));
#190=EDGE_LOOP('',(#214));
#191=EDGE_LOOP('',(#215));
#192=EDGE_LOOP('',(#216));
#193=EDGE_LOOP('',(#217));
#194=EDGE_LOOP('',(#218));
#195=EDGE_LOOP('',(#219));
#196=EDGE_LOOP('',(#220));
#197=EDGE_LOOP('',(#221));
#198=EDGE_LOOP('',(#222));
#199=EDGE_LOOP('',(#223));
#200=EDGE_LOOP('',(#224));
#201=EDGE_LOOP('',(#225));
#202=EDGE_LOOP('',(#226));
#203=ORIENTED_EDGE('',*,*,#240,.T.);
#204=ORIENTED_EDGE('',*,*,#241,.T.);
#205=ORIENTED_EDGE('',*,*,#242,.F.);
#206=ORIENTED_EDGE('',*,*,#243,.F.);
#207=ORIENTED_EDGE('',*,*,#242,.T.);
#208=ORIENTED_EDGE('',*,*,#244,.F.);
#209=ORIENTED_EDGE('',*,*,#244,.T.);
#210=ORIENTED_EDGE('',*,*,#245,.T.);
#211=ORIENTED_EDGE('',*,*,#245,.F.);
#212=ORIENTED_EDGE('',*,*,#246,.T.);
#213=ORIENTED_EDGE('',*,*,#240,.F.);
#214=ORIENTED_EDGE('',*,*,#246,.F.);
#215=ORIENTED_EDGE('',*,*,#241,.F.);
#216=ORIENTED_EDGE('',*,*,#247,.T.);
#217=ORIENTED_EDGE('',*,*,#248,.F.);
#218=ORIENTED_EDGE('',*,*,#248,.T.);
#219=ORIENTED_EDGE('',*,*,#249,.T.);
#220=ORIENTED_EDGE('',*,*,#249,.F.);
#221=ORIENTED_EDGE('',*,*,#250,.T.);
#222=ORIENTED_EDGE('',*,*,#243,.T.);
#223=ORIENTED_EDGE('',*,*,#250,.F.);
#224=ORIENTED_EDGE('',*,*,#251,.F.);
#225=ORIENTED_EDGE('',*,*,#247,.F.);
#226=ORIENTED_EDGE('',*,*,#251,.T.);
#227=VERTEX_POINT('',#344);
#228=VERTEX_POINT('',#346);
#229=VERTEX_POINT('',#349);
#230=VERTEX_POINT('',#351);
#231=VERTEX_POINT('',#354);
#232=VERTEX_POINT('',#357);
#233=VERTEX_POINT('',#360);
#234=VERTEX_POINT('',#364);
#235=VERTEX_POINT('',#367);
#236=VERTEX_POINT('',#368);
#237=VERTEX_POINT('',#371);
#238=VERTEX_POINT('',#374);
#239=VERTEX_POINT('',#378);
#240=EDGE_CURVE('',#227,#227,#252,.T.);
#241=EDGE_CURVE('',#228,#228,#253,.T.);
#242=EDGE_CURVE('',#229,#229,#254,.T.);
#243=EDGE_CURVE('',#230,#230,#255,.T.);
#244=EDGE_CURVE('',#231,#231,#256,.T.);
#245=EDGE_CURVE('',#232,#232,#257,.T.);
#246=EDGE_CURVE('',#233,#233,#258,.T.);
#247=EDGE_CURVE('',#234,#234,#259,.T.);
#248=EDGE_CURVE('',#235,#235,#260,.T.);
#249=EDGE_CURVE('',#237,#237,#261,.T.);
#250=EDGE_CURVE('',#238,#238,#262,.T.);
#251=EDGE_CURVE('',#239,#239,#263,.T.);
#252=CIRCLE('',#265,5.);
#253=CIRCLE('',#266,5.);
#254=CIRCLE('',#268,8.25);
#255=CIRCLE('',#269,7.25);
#256=CIRCLE('',#271,8.25);
#257=CIRCLE('',#273,9.5);
#258=CIRCLE('',#275,9.5);
#259=CIRCLE('',#278,5.);
#260=CIRCLE('',#280,5.5);
#261=CIRCLE('',#282,5.5);
#262=CIRCLE('',#284,7.25);
#263=CIRCLE('',#287,3.);
#264=AXIS2_PLACEMENT_3D('',#342,#290,#291);
#265=AXIS2_PLACEMENT_3D('',#343,#292,#293);
#266=AXIS2_PLACEMENT_3D('',#345,#294,#295);
#267=AXIS2_PLACEMENT_3D('',#347,#296,#297);
#268=AXIS2_PLACEMENT_3D('',#348,#298,#299);
#269=AXIS2_PLACEMENT_3D('',#350,#300,#301);
#270=AXIS2_PLACEMENT_3D('',#352,#302,#303);
#271=AXIS2_PLACEMENT_3D('',#353,#304,#305);
#272=AXIS2_PLACEMENT_3D('',#355,#306,#307);
#273=AXIS2_PLACEMENT_3D('',#356,#308,#309);
#274=AXIS2_PLACEMENT_3D('',#358,#310,#311);
#275=AXIS2_PLACEMENT_3D('',#359,#312,#313);
#276=AXIS2_PLACEMENT_3D('',#361,#314,#315);
#277=AXIS2_PLACEMENT_3D('',#362,#316,#317);
#278=AXIS2_PLACEMENT_3D('',#363,#318,#319);
#279=AXIS2_PLACEMENT_3D('',#365,#320,#321);
#280=AXIS2_PLACEMENT_3D('',#366,#322,#323);
#281=AXIS2_PLACEMENT_3D('',#369,#324,#325);
#282=AXIS2_PLACEMENT_3D('',#370,#326,#327);
#283=AXIS2_PLACEMENT_3D('',#372,#328,#329);
#284=AXIS2_PLACEMENT_3D('',#373,#330,#331);
#285=AXIS2_PLACEMENT_3D('',#375,#332,#333);
#286=AXIS2_PLACEMENT_3D('',#376,#334,#335);
#287=AXIS2_PLACEMENT_3D('',#377,#336,#337);
#288=AXIS2_PLACEMENT_3D('',#379,#338,#339);
#289=AXIS2_PLACEMENT_3D('',#380,#340,#341);
#290=DIRECTION('',(0.,0.,1.));
#291=DIRECTION('',(1.,0.,0.));
#292=DIRECTION('',(1.,0.,0.));
#293=DIRECTION('',(0.,0.,-1.));
#294=DIRECTION('',(-1.,0.,0.));
#295=DIRECTION('',(0.,0.,-1.));
#296=DIRECTION('',(1.,0.,0.));
#297=DIRECTION('',(0.,0.999999999999999,-1.24607836117787E-16));
#298=DIRECTION('',(1.,-7.97275732854539E-17,2.03698589982123E-16));
#299=DIRECTION('',(0.,1.,0.));
#300=DIRECTION('',(-1.,6.00076908228557E-16,6.91539911464827E-16));
#301=DIRECTION('',(4.78544407166016E-16,1.,-7.49503246701108E-16));
#302=DIRECTION('',(1.,2.10064170919062E-16,0.));
#303=DIRECTION('',(-2.84867220339503E-16,1.,0.));
#304=DIRECTION('',(1.,0.,0.));
#305=DIRECTION('',(0.,0.,1.));
#306=DIRECTION('',(1.,0.,0.));
#307=DIRECTION('',(0.,1.,0.));
#308=DIRECTION('',(-1.,-5.41044358979123E-17,-2.81134895670112E-16));
#309=DIRECTION('',(0.,1.,-5.41044358979121E-16));
#310=DIRECTION('',(-1.,0.,0.));
#311=DIRECTION('',(0.,1.,0.));
#312=DIRECTION('',(-1.,0.,0.));
#313=DIRECTION('',(0.,0.,-1.));
#314=DIRECTION('',(1.,2.0865480538016E-16,-3.61400724161834E-16));
#315=DIRECTION('',(-3.65204942310907E-16,1.,-1.78818066642573E-16));
#316=DIRECTION('',(1.,0.,0.));
#317=DIRECTION('',(0.,1.,0.));
#318=DIRECTION('',(-1.,0.,0.));
#319=DIRECTION('',(0.,0.,1.));
#320=DIRECTION('',(1.,0.,0.));
#321=DIRECTION('',(0.,0.999999999999999,-1.24607836117787E-16));
#322=DIRECTION('',(1.,1.0842021724855E-15,-7.51157299368581E-16));
#323=DIRECTION('',(1.26161707343768E-15,-1.,0.));
#324=DIRECTION('',(-1.,-1.0842021724855E-15,7.51157299368581E-16));
#325=DIRECTION('',(-1.08379549449258E-15,1.,1.11001357192866E-34));
#326=DIRECTION('',(-1.,0.,0.));
#327=DIRECTION('',(0.,0.,1.));
#328=DIRECTION('',(1.,4.18051088781021E-16,-2.23835287222814E-16));
#329=DIRECTION('',(-3.94255335449274E-16,1.,0.));
#330=DIRECTION('',(-1.,2.94614096219684E-17,-3.97007818669286E-33));
#331=DIRECTION('',(2.94614096219684E-17,1.,-8.50745612739584E-16));
#332=DIRECTION('',(-1.,0.,0.));
#333=DIRECTION('',(0.,1.,0.));
#334=DIRECTION('',(1.,1.24917207783518E-16,1.07981543513809E-32));
#335=DIRECTION('',(-1.24917207783518E-16,1.,1.24917207783518E-16));
#336=DIRECTION('',(-1.,0.,0.));
#337=DIRECTION('',(0.,0.,1.));
#338=DIRECTION('',(-1.,0.,0.));
#339=DIRECTION('',(0.,0.924224592736303,0.381849318686593));
#340=DIRECTION('',(-1.,0.,0.));
#341=DIRECTION('',(0.,0.,1.));
#342=CARTESIAN_POINT('',(0.,0.,0.));
#343=CARTESIAN_POINT('',(25.5,49.,6.23039180588934E-16));
#344=CARTESIAN_POINT('',(25.5,49.,-5.));
#345=CARTESIAN_POINT('',(50.,49.,6.23039180588934E-16));
#346=CARTESIAN_POINT('',(50.,49.,-5.));
#347=CARTESIAN_POINT('',(25.5,49.,6.23039180588934E-16));
#348=CARTESIAN_POINT('',(21.8,49.,0.));
#349=CARTESIAN_POINT('',(21.8,57.25,0.));
#350=CARTESIAN_POINT('',(20.0679491924311,49.,5.43389853858304E-15));
#351=CARTESIAN_POINT('',(20.0679491924311,56.25,6.16297582203915E-30));
#352=CARTESIAN_POINT('',(20.0679491924311,49.,0.));
#353=CARTESIAN_POINT('',(24.3,49.,0.));
#354=CARTESIAN_POINT('',(24.3,49.,8.25));
#355=CARTESIAN_POINT('',(21.8,49.,0.));
#356=CARTESIAN_POINT('',(24.3,49.,5.13992141030165E-15));
#357=CARTESIAN_POINT('',(24.3,58.5,0.));
#358=CARTESIAN_POINT('',(24.3,38.55,10.45));
#359=CARTESIAN_POINT('',(25.5,49.,1.31930087273452E-15));
#360=CARTESIAN_POINT('',(25.5,49.,-9.5));
#361=CARTESIAN_POINT('',(24.3,49.,1.75298174172872E-15));
#362=CARTESIAN_POINT('',(25.5,38.55,-10.45));
#363=CARTESIAN_POINT('',(52.4999999999999,49.,-1.21377890813074E-14));
#364=CARTESIAN_POINT('',(52.4999999999999,49.,4.99999999999999));
#365=CARTESIAN_POINT('',(25.5,49.,6.23039180588934E-16));
#366=CARTESIAN_POINT('',(18.2113248654052,49.,6.50521303491303E-16));
#367=CARTESIAN_POINT('',(18.2113248654052,43.5,6.50521303491303E-16));
#368=CARTESIAN_POINT('',(21.3867513459481,49.,-1.73472347597681E-15));
#369=CARTESIAN_POINT('',(19.6547005383792,49.,-4.33680868994202E-16));
#370=CARTESIAN_POINT('',(0.,49.,2.40622933764525E-15));
#371=CARTESIAN_POINT('',(0.,49.,5.5));
#372=CARTESIAN_POINT('',(3.,49.,1.7347234759768E-15));
#373=CARTESIAN_POINT('',(2.1359521975927E-16,49.,6.16790569236199E-15));
#374=CARTESIAN_POINT('',(4.27190439518541E-16,56.25,5.39260384428426E-30));
#375=CARTESIAN_POINT('',(0.,41.025,7.975));
#376=CARTESIAN_POINT('',(1.7347234759768E-15,49.,-9.05649756430505E-16));
#377=CARTESIAN_POINT('',(54.4999999999999,49.,-1.21377890813074E-14));
#378=CARTESIAN_POINT('',(54.4999999999999,49.,2.99999999999999));
#379=CARTESIAN_POINT('',(54.4999999999999,49.8591609670448,-2.07950533365673));
#380=CARTESIAN_POINT('',(52.4999999999999,49.,-1.21377890813074E-14));
#381=MECHANICAL_DESIGN_GEOMETRIC_PRESENTATION_REPRESENTATION('',(#37,#23,
#24,#25,#26,#27,#28,#29,#30,#31,#32,#33,#34,#35),#382);
#382=(
GEOMETRIC_REPRESENTATION_CONTEXT(3)
GLOBAL_UNCERTAINTY_ASSIGNED_CONTEXT((#383))
GLOBAL_UNIT_ASSIGNED_CONTEXT((#389,#385,#384))
REPRESENTATION_CONTEXT('n 01 100 x0xx 001nxc001-01',
'TOP_LEVEL_ASSEMBLY_PART')
);
#383=UNCERTAINTY_MEASURE_WITH_UNIT(LENGTH_MEASURE(2.E-5),#389,
'DISTANCE_ACCURACY_VALUE','Maximum Tolerance applied to model');
#384=(
NAMED_UNIT(*)
SI_UNIT($,.STERADIAN.)
SOLID_ANGLE_UNIT()
);
#385=(
CONVERSION_BASED_UNIT('DEGREE',#387)
NAMED_UNIT(#386)
PLANE_ANGLE_UNIT()
);
#386=DIMENSIONAL_EXPONENTS(0.,0.,0.,0.,0.,0.,0.);
#387=PLANE_ANGLE_MEASURE_WITH_UNIT(PLANE_ANGLE_MEASURE(0.0174532925),#388);
#388=(
NAMED_UNIT(*)
PLANE_ANGLE_UNIT()
SI_UNIT($,.RADIAN.)
);
#389=(
LENGTH_UNIT()
NAMED_UNIT(*)
SI_UNIT(.MILLI.,.METRE.)
);
ENDSEC;
END-ISO-10303-21;
