ISO-10303-21;
HEADER;
/* Generated by software containing ST-Developer
 * from STEP Tools, Inc. (www.steptools.com) 
 */
/* OPTION: using custom schema-name function */

FILE_DESCRIPTION(
/* description */ (''),
/* implementation_level */ '2;1');

FILE_NAME(
/* name */ 'n 01 010 0130 2nxm001-02.stp',
/* time_stamp */ '2015-07-28T11:32:04+02:00',
/* author */ ('Amphenol-Tuchel Electronics GmbH'),
/* organization */ (''),
/* preprocessor_version */ 'ST-DEVELOPER v15',
/* originating_system */ 'SIEMENS PLM Software NX 9.0',
/* authorisation */ '');

FILE_SCHEMA (('CONFIG_CONTROL_DESIGN'));
ENDSEC;

DATA;
#10=SHAPE_REPRESENTATION_RELATIONSHIP('None',
'relationship between n 01 010 0130 2nxm001-02-None and n 01 010 0130 
2nxm001-02-None',#92,#11);
#11=ADVANCED_BREP_SHAPE_REPRESENTATION('n 01 010 0130 2nxm001-02-None',
(#93),#525);
#12=CC_DESIGN_APPROVAL(#24,(#82));
#13=CC_DESIGN_APPROVAL(#25,(#84));
#14=CC_DESIGN_APPROVAL(#26,(#31));
#15=APPROVAL_PERSON_ORGANIZATION(#69,#24,#18);
#16=APPROVAL_PERSON_ORGANIZATION(#70,#25,#19);
#17=APPROVAL_PERSON_ORGANIZATION(#71,#26,#20);
#18=APPROVAL_ROLE('approver');
#19=APPROVAL_ROLE('approver');
#20=APPROVAL_ROLE('approver');
#21=APPROVAL_DATE_TIME(#39,#24);
#22=APPROVAL_DATE_TIME(#40,#25);
#23=APPROVAL_DATE_TIME(#41,#26);
#24=APPROVAL(#27,' ');
#25=APPROVAL(#28,' ');
#26=APPROVAL(#29,' ');
#27=APPROVAL_STATUS('not_yet_approved');
#28=APPROVAL_STATUS('not_yet_approved');
#29=APPROVAL_STATUS('not_yet_approved');
#30=CC_DESIGN_SECURITY_CLASSIFICATION(#31,(#84));
#31=SECURITY_CLASSIFICATION(' ',' ',#32);
#32=SECURITY_CLASSIFICATION_LEVEL('confidential');
#33=CC_DESIGN_DATE_AND_TIME_ASSIGNMENT(#37,#35,(#82));
#34=CC_DESIGN_DATE_AND_TIME_ASSIGNMENT(#38,#36,(#31));
#35=DATE_TIME_ROLE('creation_date');
#36=DATE_TIME_ROLE('classification_date');
#37=DATE_AND_TIME(#52,#42);
#38=DATE_AND_TIME(#53,#43);
#39=DATE_AND_TIME(#54,#44);
#40=DATE_AND_TIME(#55,#45);
#41=DATE_AND_TIME(#56,#46);
#42=LOCAL_TIME(0,0,0.,#47);
#43=LOCAL_TIME(0,0,0.,#48);
#44=LOCAL_TIME(0,0,0.,#49);
#45=LOCAL_TIME(0,0,0.,#50);
#46=LOCAL_TIME(0,0,0.,#51);
#47=COORDINATED_UNIVERSAL_TIME_OFFSET(0,0,.BEHIND.);
#48=COORDINATED_UNIVERSAL_TIME_OFFSET(0,0,.BEHIND.);
#49=COORDINATED_UNIVERSAL_TIME_OFFSET(0,0,.BEHIND.);
#50=COORDINATED_UNIVERSAL_TIME_OFFSET(0,0,.BEHIND.);
#51=COORDINATED_UNIVERSAL_TIME_OFFSET(0,0,.BEHIND.);
#52=CALENDAR_DATE(0,1,1);
#53=CALENDAR_DATE(0,1,1);
#54=CALENDAR_DATE(0,1,1);
#55=CALENDAR_DATE(0,1,1);
#56=CALENDAR_DATE(0,1,1);
#57=CC_DESIGN_PERSON_AND_ORGANIZATION_ASSIGNMENT(#65,#61,(#82,#84));
#58=CC_DESIGN_PERSON_AND_ORGANIZATION_ASSIGNMENT(#66,#62,(#86));
#59=CC_DESIGN_PERSON_AND_ORGANIZATION_ASSIGNMENT(#67,#63,(#84));
#60=CC_DESIGN_PERSON_AND_ORGANIZATION_ASSIGNMENT(#68,#64,(#31));
#61=PERSON_AND_ORGANIZATION_ROLE('creator');
#62=PERSON_AND_ORGANIZATION_ROLE('design_owner');
#63=PERSON_AND_ORGANIZATION_ROLE('design_supplier');
#64=PERSON_AND_ORGANIZATION_ROLE('classification_officer');
#65=PERSON_AND_ORGANIZATION(#79,#72);
#66=PERSON_AND_ORGANIZATION(#79,#73);
#67=PERSON_AND_ORGANIZATION(#79,#74);
#68=PERSON_AND_ORGANIZATION(#79,#75);
#69=PERSON_AND_ORGANIZATION(#79,#76);
#70=PERSON_AND_ORGANIZATION(#79,#77);
#71=PERSON_AND_ORGANIZATION(#79,#78);
#72=ORGANIZATION(' ',' ',' ');
#73=ORGANIZATION(' ',' ',' ');
#74=ORGANIZATION(' ',' ',' ');
#75=ORGANIZATION(' ',' ',' ');
#76=ORGANIZATION(' ',' ',' ');
#77=ORGANIZATION(' ',' ',' ');
#78=ORGANIZATION(' ',' ',' ');
#79=PERSON(' ',' ',' ',(' '),$,$);
#80=SHAPE_DEFINITION_REPRESENTATION(#81,#92);
#81=PRODUCT_DEFINITION_SHAPE('','',#82);
#82=PRODUCT_DEFINITION(' ','',#84,#83);
#83=DESIGN_CONTEXT('',#91,'design');
#84=PRODUCT_DEFINITION_FORMATION_WITH_SPECIFIED_SOURCE(' ',' ',#86,
 .NOT_KNOWN.);
#85=PRODUCT_RELATED_PRODUCT_CATEGORY('detail','',(#86));
#86=PRODUCT('n 01 010 0130 2nxm001-02','n 01 010 0130 2nxm001-02',' ',(#89));
#87=PRODUCT_CATEGORY('part',' ');
#88=PRODUCT_CATEGORY(' ','');
#89=MECHANICAL_CONTEXT(' ',#91,'mechanical');
#90=APPLICATION_PROTOCOL_DEFINITION('international standard',
'config_control_design',2010,#91);
#91=APPLICATION_CONTEXT(
'configuration controlled 3D designs of mechanical parts and assemblie
s');
#92=SHAPE_REPRESENTATION('n 01 010 0130 2nxm001-02-None',(#323),#525);
#93=MANIFOLD_SOLID_BREP('',#94);
#94=CLOSED_SHELL('',(#132,#133,#134,#135,#136,#137,#138,#139,#140,#141,
#142,#143,#144,#145,#146,#147,#148,#149,#150,#151,#152));
#95=CONICAL_SURFACE('',#339,0.462434057977999,26.5650511770821);
#96=CONICAL_SURFACE('',#347,0.500000000000007,26.5650511770805);
#97=PLANE('',#328);
#98=PLANE('',#332);
#99=PLANE('',#336);
#100=PLANE('',#343);
#101=PLANE('',#351);
#102=PLANE('',#355);
#103=PLANE('',#359);
#104=CYLINDRICAL_SURFACE('',#326,0.475000000000011);
#105=CYLINDRICAL_SURFACE('',#330,1.02);
#106=CYLINDRICAL_SURFACE('',#334,0.73);
#107=CYLINDRICAL_SURFACE('',#338,0.480000000000008);
#108=CYLINDRICAL_SURFACE('',#341,0.73);
#109=CYLINDRICAL_SURFACE('',#345,0.750000000000015);
#110=CYLINDRICAL_SURFACE('',#349,0.500000000000007);
#111=CYLINDRICAL_SURFACE('',#353,0.75000000000001);
#112=CYLINDRICAL_SURFACE('',#357,1.04);
#113=CYLINDRICAL_SURFACE('',#361,0.495);
#114=CIRCLE('',#325,0.475000000000008);
#115=CIRCLE('',#327,1.02);
#116=CIRCLE('',#329,1.02);
#117=CIRCLE('',#331,0.730000000000008);
#118=CIRCLE('',#333,0.73);
#119=CIRCLE('',#335,0.480000000000011);
#120=CIRCLE('',#337,0.480000000000006);
#121=CIRCLE('',#340,0.73);
#122=CIRCLE('',#342,0.75);
#123=CIRCLE('',#344,0.750000000000016);
#124=CIRCLE('',#346,0.500000000000006);
#125=CIRCLE('',#348,0.500000000000007);
#126=CIRCLE('',#350,0.75);
#127=CIRCLE('',#352,0.750000000000011);
#128=CIRCLE('',#354,1.04);
#129=CIRCLE('',#356,1.04);
#130=CIRCLE('',#358,0.495000000000006);
#131=CIRCLE('',#360,0.495);
#132=ADVANCED_FACE('',(#157,#158),#153,.F.);
#133=ADVANCED_FACE('',(#159,#160),#104,.F.);
#134=ADVANCED_FACE('',(#161,#162),#97,.F.);
#135=ADVANCED_FACE('',(#163,#164),#105,.F.);
#136=ADVANCED_FACE('',(#165,#166),#98,.F.);
#137=ADVANCED_FACE('',(#167,#168),#106,.F.);
#138=ADVANCED_FACE('',(#169,#170),#99,.F.);
#139=ADVANCED_FACE('',(#171,#172),#107,.F.);
#140=ADVANCED_FACE('',(#173,#174),#95,.F.);
#141=ADVANCED_FACE('',(#175,#176),#108,.F.);
#142=ADVANCED_FACE('',(#177,#178),#100,.T.);
#143=ADVANCED_FACE('',(#179,#180),#109,.T.);
#144=ADVANCED_FACE('',(#181,#182),#96,.T.);
#145=ADVANCED_FACE('',(#183,#184),#110,.T.);
#146=ADVANCED_FACE('',(#185,#186),#101,.T.);
#147=ADVANCED_FACE('',(#187,#188),#111,.T.);
#148=ADVANCED_FACE('',(#189,#190),#102,.T.);
#149=ADVANCED_FACE('',(#191,#192),#112,.T.);
#150=ADVANCED_FACE('',(#193,#194),#103,.T.);
#151=ADVANCED_FACE('',(#195,#196),#113,.T.);
#152=ADVANCED_FACE('',(#197,#198),#154,.T.);
#153=SPHERICAL_SURFACE('',#324,0.475);
#154=SPHERICAL_SURFACE('',#362,0.49500000000001);
#155=VERTEX_LOOP('',#280);
#156=VERTEX_LOOP('',#300);
#157=FACE_BOUND('',#199,.T.);
#158=FACE_BOUND('',#155,.T.);
#159=FACE_BOUND('',#200,.T.);
#160=FACE_BOUND('',#201,.T.);
#161=FACE_BOUND('',#202,.T.);
#162=FACE_BOUND('',#203,.T.);
#163=FACE_BOUND('',#204,.T.);
#164=FACE_BOUND('',#205,.T.);
#165=FACE_BOUND('',#206,.T.);
#166=FACE_BOUND('',#207,.T.);
#167=FACE_BOUND('',#208,.T.);
#168=FACE_BOUND('',#209,.T.);
#169=FACE_BOUND('',#210,.T.);
#170=FACE_BOUND('',#211,.T.);
#171=FACE_BOUND('',#212,.T.);
#172=FACE_BOUND('',#213,.T.);
#173=FACE_BOUND('',#214,.T.);
#174=FACE_BOUND('',#215,.T.);
#175=FACE_BOUND('',#216,.T.);
#176=FACE_BOUND('',#217,.T.);
#177=FACE_BOUND('',#218,.T.);
#178=FACE_BOUND('',#219,.T.);
#179=FACE_BOUND('',#220,.T.);
#180=FACE_BOUND('',#221,.T.);
#181=FACE_BOUND('',#222,.T.);
#182=FACE_BOUND('',#223,.T.);
#183=FACE_BOUND('',#224,.T.);
#184=FACE_BOUND('',#225,.T.);
#185=FACE_BOUND('',#226,.T.);
#186=FACE_BOUND('',#227,.T.);
#187=FACE_BOUND('',#228,.T.);
#188=FACE_BOUND('',#229,.T.);
#189=FACE_BOUND('',#230,.T.);
#190=FACE_BOUND('',#231,.T.);
#191=FACE_BOUND('',#232,.T.);
#192=FACE_BOUND('',#233,.T.);
#193=FACE_BOUND('',#234,.T.);
#194=FACE_BOUND('',#235,.T.);
#195=FACE_BOUND('',#236,.T.);
#196=FACE_BOUND('',#237,.T.);
#197=FACE_BOUND('',#238,.T.);
#198=FACE_BOUND('',#156,.T.);
#199=EDGE_LOOP('',(#239));
#200=EDGE_LOOP('',(#240));
#201=EDGE_LOOP('',(#241));
#202=EDGE_LOOP('',(#242));
#203=EDGE_LOOP('',(#243));
#204=EDGE_LOOP('',(#244));
#205=EDGE_LOOP('',(#245));
#206=EDGE_LOOP('',(#246));
#207=EDGE_LOOP('',(#247));
#208=EDGE_LOOP('',(#248));
#209=EDGE_LOOP('',(#249));
#210=EDGE_LOOP('',(#250));
#211=EDGE_LOOP('',(#251));
#212=EDGE_LOOP('',(#252));
#213=EDGE_LOOP('',(#253));
#214=EDGE_LOOP('',(#254));
#215=EDGE_LOOP('',(#255));
#216=EDGE_LOOP('',(#256));
#217=EDGE_LOOP('',(#257));
#218=EDGE_LOOP('',(#258));
#219=EDGE_LOOP('',(#259));
#220=EDGE_LOOP('',(#260));
#221=EDGE_LOOP('',(#261));
#222=EDGE_LOOP('',(#262));
#223=EDGE_LOOP('',(#263));
#224=EDGE_LOOP('',(#264));
#225=EDGE_LOOP('',(#265));
#226=EDGE_LOOP('',(#266));
#227=EDGE_LOOP('',(#267));
#228=EDGE_LOOP('',(#268));
#229=EDGE_LOOP('',(#269));
#230=EDGE_LOOP('',(#270));
#231=EDGE_LOOP('',(#271));
#232=EDGE_LOOP('',(#272));
#233=EDGE_LOOP('',(#273));
#234=EDGE_LOOP('',(#274));
#235=EDGE_LOOP('',(#275));
#236=EDGE_LOOP('',(#276));
#237=EDGE_LOOP('',(#277));
#238=EDGE_LOOP('',(#278));
#239=ORIENTED_EDGE('',*,*,#301,.F.);
#240=ORIENTED_EDGE('',*,*,#301,.T.);
#241=ORIENTED_EDGE('',*,*,#302,.T.);
#242=ORIENTED_EDGE('',*,*,#302,.F.);
#243=ORIENTED_EDGE('',*,*,#303,.T.);
#244=ORIENTED_EDGE('',*,*,#303,.F.);
#245=ORIENTED_EDGE('',*,*,#304,.T.);
#246=ORIENTED_EDGE('',*,*,#305,.T.);
#247=ORIENTED_EDGE('',*,*,#304,.F.);
#248=ORIENTED_EDGE('',*,*,#305,.F.);
#249=ORIENTED_EDGE('',*,*,#306,.T.);
#250=ORIENTED_EDGE('',*,*,#307,.T.);
#251=ORIENTED_EDGE('',*,*,#306,.F.);
#252=ORIENTED_EDGE('',*,*,#307,.F.);
#253=ORIENTED_EDGE('',*,*,#308,.T.);
#254=ORIENTED_EDGE('',*,*,#308,.F.);
#255=ORIENTED_EDGE('',*,*,#309,.T.);
#256=ORIENTED_EDGE('',*,*,#309,.F.);
#257=ORIENTED_EDGE('',*,*,#310,.F.);
#258=ORIENTED_EDGE('',*,*,#310,.T.);
#259=ORIENTED_EDGE('',*,*,#311,.T.);
#260=ORIENTED_EDGE('',*,*,#311,.F.);
#261=ORIENTED_EDGE('',*,*,#312,.T.);
#262=ORIENTED_EDGE('',*,*,#312,.F.);
#263=ORIENTED_EDGE('',*,*,#313,.T.);
#264=ORIENTED_EDGE('',*,*,#313,.F.);
#265=ORIENTED_EDGE('',*,*,#314,.T.);
#266=ORIENTED_EDGE('',*,*,#314,.F.);
#267=ORIENTED_EDGE('',*,*,#315,.T.);
#268=ORIENTED_EDGE('',*,*,#315,.F.);
#269=ORIENTED_EDGE('',*,*,#316,.T.);
#270=ORIENTED_EDGE('',*,*,#316,.F.);
#271=ORIENTED_EDGE('',*,*,#317,.T.);
#272=ORIENTED_EDGE('',*,*,#317,.F.);
#273=ORIENTED_EDGE('',*,*,#318,.T.);
#274=ORIENTED_EDGE('',*,*,#319,.T.);
#275=ORIENTED_EDGE('',*,*,#318,.F.);
#276=ORIENTED_EDGE('',*,*,#319,.F.);
#277=ORIENTED_EDGE('',*,*,#320,.F.);
#278=ORIENTED_EDGE('',*,*,#320,.T.);
#279=VERTEX_POINT('',#454);
#280=VERTEX_POINT('',#455);
#281=VERTEX_POINT('',#458);
#282=VERTEX_POINT('',#461);
#283=VERTEX_POINT('',#464);
#284=VERTEX_POINT('',#467);
#285=VERTEX_POINT('',#470);
#286=VERTEX_POINT('',#473);
#287=VERTEX_POINT('',#476);
#288=VERTEX_POINT('',#488);
#289=VERTEX_POINT('',#491);
#290=VERTEX_POINT('',#494);
#291=VERTEX_POINT('',#497);
#292=VERTEX_POINT('',#500);
#293=VERTEX_POINT('',#503);
#294=VERTEX_POINT('',#506);
#295=VERTEX_POINT('',#509);
#296=VERTEX_POINT('',#512);
#297=VERTEX_POINT('',#515);
#298=VERTEX_POINT('',#518);
#299=VERTEX_POINT('',#521);
#300=VERTEX_POINT('',#523);
#301=EDGE_CURVE('',#279,#279,#321,.T.);
#302=EDGE_CURVE('',#281,#281,#114,.T.);
#303=EDGE_CURVE('',#282,#282,#115,.T.);
#304=EDGE_CURVE('',#283,#283,#116,.T.);
#305=EDGE_CURVE('',#284,#284,#117,.T.);
#306=EDGE_CURVE('',#285,#285,#118,.T.);
#307=EDGE_CURVE('',#286,#286,#119,.T.);
#308=EDGE_CURVE('',#287,#287,#120,.T.);
#309=EDGE_CURVE('',#288,#288,#322,.T.);
#310=EDGE_CURVE('',#289,#289,#121,.T.);
#311=EDGE_CURVE('',#290,#290,#122,.T.);
#312=EDGE_CURVE('',#291,#291,#123,.T.);
#313=EDGE_CURVE('',#292,#292,#124,.T.);
#314=EDGE_CURVE('',#293,#293,#125,.T.);
#315=EDGE_CURVE('',#294,#294,#126,.T.);
#316=EDGE_CURVE('',#295,#295,#127,.T.);
#317=EDGE_CURVE('',#296,#296,#128,.T.);
#318=EDGE_CURVE('',#297,#297,#129,.T.);
#319=EDGE_CURVE('',#298,#298,#130,.T.);
#320=EDGE_CURVE('',#299,#299,#131,.T.);
#321=B_SPLINE_CURVE_WITH_KNOTS('',3,(#444,#445,#446,#447,#448,#449,#450,
#451,#452,#453),.UNSPECIFIED.,.T.,.F.,(2,2,2,2,2,2,2),(-0.25,0.,0.25,0.5,
0.75,1.,1.25),.UNSPECIFIED.);
#322=B_SPLINE_CURVE_WITH_KNOTS('',3,(#478,#479,#480,#481,#482,#483,#484,
#485,#486,#487),.UNSPECIFIED.,.T.,.F.,(2,2,2,2,2,2,2),(-0.25,0.,0.25,0.5,
0.75,1.,1.25),.UNSPECIFIED.);
#323=AXIS2_PLACEMENT_3D('',#443,#363,#364);
#324=AXIS2_PLACEMENT_3D('',#456,#365,#366);
#325=AXIS2_PLACEMENT_3D('',#457,#367,#368);
#326=AXIS2_PLACEMENT_3D('',#459,#369,#370);
#327=AXIS2_PLACEMENT_3D('',#460,#371,#372);
#328=AXIS2_PLACEMENT_3D('',#462,#373,#374);
#329=AXIS2_PLACEMENT_3D('',#463,#375,#376);
#330=AXIS2_PLACEMENT_3D('',#465,#377,#378);
#331=AXIS2_PLACEMENT_3D('',#466,#379,#380);
#332=AXIS2_PLACEMENT_3D('',#468,#381,#382);
#333=AXIS2_PLACEMENT_3D('',#469,#383,#384);
#334=AXIS2_PLACEMENT_3D('',#471,#385,#386);
#335=AXIS2_PLACEMENT_3D('',#472,#387,#388);
#336=AXIS2_PLACEMENT_3D('',#474,#389,#390);
#337=AXIS2_PLACEMENT_3D('',#475,#391,#392);
#338=AXIS2_PLACEMENT_3D('',#477,#393,#394);
#339=AXIS2_PLACEMENT_3D('',#489,#395,#396);
#340=AXIS2_PLACEMENT_3D('',#490,#397,#398);
#341=AXIS2_PLACEMENT_3D('',#492,#399,#400);
#342=AXIS2_PLACEMENT_3D('',#493,#401,#402);
#343=AXIS2_PLACEMENT_3D('',#495,#403,#404);
#344=AXIS2_PLACEMENT_3D('',#496,#405,#406);
#345=AXIS2_PLACEMENT_3D('',#498,#407,#408);
#346=AXIS2_PLACEMENT_3D('',#499,#409,#410);
#347=AXIS2_PLACEMENT_3D('',#501,#411,#412);
#348=AXIS2_PLACEMENT_3D('',#502,#413,#414);
#349=AXIS2_PLACEMENT_3D('',#504,#415,#416);
#350=AXIS2_PLACEMENT_3D('',#505,#417,#418);
#351=AXIS2_PLACEMENT_3D('',#507,#419,#420);
#352=AXIS2_PLACEMENT_3D('',#508,#421,#422);
#353=AXIS2_PLACEMENT_3D('',#510,#423,#424);
#354=AXIS2_PLACEMENT_3D('',#511,#425,#426);
#355=AXIS2_PLACEMENT_3D('',#513,#427,#428);
#356=AXIS2_PLACEMENT_3D('',#514,#429,#430);
#357=AXIS2_PLACEMENT_3D('',#516,#431,#432);
#358=AXIS2_PLACEMENT_3D('',#517,#433,#434);
#359=AXIS2_PLACEMENT_3D('',#519,#435,#436);
#360=AXIS2_PLACEMENT_3D('',#520,#437,#438);
#361=AXIS2_PLACEMENT_3D('',#522,#439,#440);
#362=AXIS2_PLACEMENT_3D('',#524,#441,#442);
#363=DIRECTION('',(0.,0.,1.));
#364=DIRECTION('',(1.,0.,0.));
#365=DIRECTION('',(-1.00000000000001,0.,5.2379143352337E-031));
#366=DIRECTION('',(0.,-0.999999999999999,8.55416327202348E-015));
#367=DIRECTION('',(-1.,-2.16417743591642E-014,-2.24907916536086E-014));
#368=DIRECTION('',(1.4608197692436E-014,-0.999999999999997,-5.61333522440827E-015));
#369=DIRECTION('',(-1.,-3.24626615387476E-015,-5.62269791340221E-015));
#370=DIRECTION('',(0.,-0.999999999999998,-5.61333522440844E-015));
#371=DIRECTION('',(-1.,-4.03131091004052E-015,1.05556378774766E-029));
#372=DIRECTION('',(6.80283716069336E-015,-1.,2.64554778471409E-015));
#373=DIRECTION('',(1.,0.,0.));
#374=DIRECTION('',(0.,1.,0.));
#375=DIRECTION('',(-1.,6.04696636506077E-015,1.04736529759453E-014));
#376=DIRECTION('',(-6.80283716069336E-015,-1.,0.));
#377=DIRECTION('',(-1.,2.40277921212866E-015,4.16173567477715E-015));
#378=DIRECTION('',(0.,-1.,2.06862743834514E-015));
#379=DIRECTION('',(-1.,1.68983717598959E-014,2.92688384533265E-014));
#380=DIRECTION('',(-1.90106682298826E-014,-1.,0.));
#381=DIRECTION('',(-1.,0.,0.));
#382=DIRECTION('',(0.,1.,0.));
#383=DIRECTION('',(-1.,1.68983717598959E-014,2.92688384533265E-014));
#384=DIRECTION('',(-1.90106682298828E-014,-1.,0.));
#385=DIRECTION('',(-1.,1.35786112546527E-014,1.4258001172412E-014));
#386=DIRECTION('',(-9.50533411494141E-015,-1.,3.59234795164291E-015));
#387=DIRECTION('',(-1.,-2.78412409724669E-014,-1.11282562869416E-014));
#388=DIRECTION('',(2.89120579329461E-014,-1.,5.55486298248738E-015));
#389=DIRECTION('',(-1.,0.,0.));
#390=DIRECTION('',(0.,1.,0.));
#391=DIRECTION('',(-1.,8.15340764306555E-015,6.57092225748771E-015));
#392=DIRECTION('',(-1.44560289664732E-014,-0.999999999999997,0.));
#393=DIRECTION('',(-1.,-2.76879864886852E-014,-6.57092225748772E-015));
#394=DIRECTION('',(2.89120579329463E-014,-1.,0.));
#395=DIRECTION('',(-1.,2.57303502264978E-014,-7.14160681328173E-029));
#396=DIRECTION('',(-2.16293446889149E-014,-1.,3.29014912255643E-015));
#397=DIRECTION('',(1.,-2.67557552865017E-014,-7.31720961333157E-015));
#398=DIRECTION('',(-2.85160023448242E-014,-1.,3.69651882247721E-015));
#399=DIRECTION('',(-1.,1.48094312868081E-014,7.129000586206E-015));
#400=DIRECTION('',(-1.90106682298828E-014,-1.,3.5923479516429E-015));
#401=DIRECTION('',(-1.,0.,0.));
#402=DIRECTION('',(0.,-1.,0.));
#403=DIRECTION('',(-1.,0.,0.));
#404=DIRECTION('',(0.,1.,0.));
#405=DIRECTION('',(-1.,-1.19799816463139E-015,-6.93889390390723E-015));
#406=DIRECTION('',(0.,-0.999999999999998,-3.49655200626583E-015));
#407=DIRECTION('',(-1.,9.21034269122965E-015,6.93889390390726E-015));
#408=DIRECTION('',(-9.25185853854279E-015,-0.999999999999999,-3.49655200626581E-015));
#409=DIRECTION('',(-1.,0.,0.));
#410=DIRECTION('',(0.,-1.,0.));
#411=DIRECTION('',(-1.,0.,-6.20633538311873E-015));
#412=DIRECTION('',(3.36893350379475E-015,-1.,3.14418630020855E-015));
#413=DIRECTION('',(-1.,-3.07657635816634E-014,-6.30808536718822E-015));
#414=DIRECTION('',(2.77555756156285E-014,-1.,0.));
#415=DIRECTION('',(-1.,-1.87531956917948E-014,-1.26161707343764E-014));
#416=DIRECTION('',(1.38777878078143E-014,-1.,0.));
#417=DIRECTION('',(-1.,-5.48258283765504E-015,0.));
#418=DIRECTION('',(9.25185853854297E-015,-1.,0.));
#419=DIRECTION('',(-1.,0.,0.));
#420=DIRECTION('',(0.,1.,0.));
#421=DIRECTION('',(-1.,5.20417042793048E-015,1.80555932286305E-029));
#422=DIRECTION('',(-9.25185853854284E-015,-1.,-3.49655200626579E-015));
#423=DIRECTION('',(-1.,2.80817409866773E-015,1.38777878078144E-014));
#424=DIRECTION('',(0.,-1.,-3.49655200626579E-015));
#425=DIRECTION('',(-1.,1.97689285011602E-015,1.02722365725617E-014));
#426=DIRECTION('',(0.,-0.999999999999999,-2.59467186577727E-015));
#427=DIRECTION('',(-1.,0.,0.));
#428=DIRECTION('',(0.,1.,0.));
#429=DIRECTION('',(-1.,5.27502178028984E-015,8.1634045928321E-015));
#430=DIRECTION('',(-6.67201336914157E-015,-0.999999999999999,0.));
#431=DIRECTION('',(-1.,2.35657191958772E-015,4.08170229641605E-015));
#432=DIRECTION('',(0.,-0.999999999999999,0.));
#433=DIRECTION('',(-1.,8.30694369341672E-015,-4.48202658819569E-029));
#434=DIRECTION('',(-1.40179674826407E-014,-1.,5.38653380119991E-015));
#435=DIRECTION('',(1.,0.,0.));
#436=DIRECTION('',(0.,1.,0.));
#437=DIRECTION('',(1.,-7.00898374132076E-015,-3.47372238487536E-029));
#438=DIRECTION('',(-1.40179674826409E-014,-0.999999999999998,-4.92819169311616E-015));
#439=DIRECTION('',(-1.,-2.07673592335419E-015,1.07910363994588E-014));
#440=DIRECTION('',(0.,-0.999999999999998,5.38653380119992E-015));
#441=DIRECTION('',(-0.999999999999999,-2.10269512239609E-014,-1.91221520113386E-028));
#442=DIRECTION('',(2.80359349652812E-014,-0.999999999999999,-8.20854051355788E-015));
#443=CARTESIAN_POINT('',(0.,0.,0.));
#444=CARTESIAN_POINT('',(-34.2068247580529,25.6947586327791,0.248709418409194));
#445=CARTESIAN_POINT('',(-34.2068247580529,25.6947586327792,-0.248709418409201));
#446=CARTESIAN_POINT('',(-34.2068247580529,25.92104921437,-0.475000000000001));
#447=CARTESIAN_POINT('',(-34.2068247580528,26.4184680511884,-0.474999999999972));
#448=CARTESIAN_POINT('',(-34.2068247580528,26.6447586327792,-0.248709418409147));
#449=CARTESIAN_POINT('',(-34.2068247580528,26.6447586327791,0.248709418409248));
#450=CARTESIAN_POINT('',(-34.2068247580529,26.4184680511883,0.475000000000049));
#451=CARTESIAN_POINT('',(-34.2068247580529,25.9210492143699,0.475000000000022));
#452=CARTESIAN_POINT('',(-34.2068247580529,25.6947586327791,0.248709418409194));
#453=CARTESIAN_POINT('',(-34.2068247580529,25.6947586327792,-0.248709418409201));
#454=CARTESIAN_POINT('',(-34.2068247580529,25.6947586327791,-1.13428042339835E-015));
#455=CARTESIAN_POINT('',(-33.7318247580529,26.1697586327791,0.));
#456=CARTESIAN_POINT('',(-34.2068247580528,26.1697586327791,0.));
#457=CARTESIAN_POINT('',(-41.9118247580529,26.1697586327791,-1.87949237968214E-014));
#458=CARTESIAN_POINT('',(-41.9118247580528,25.6947586327791,-2.14612580284154E-014));
#459=CARTESIAN_POINT('',(-34.2068247580528,26.1697586327792,2.45279636259427E-014));
#460=CARTESIAN_POINT('',(-41.9118247580529,26.1697586327792,-6.15269935047318E-015));
#461=CARTESIAN_POINT('',(-41.9118247580528,25.1497586327792,-3.45424061006481E-015));
#462=CARTESIAN_POINT('',(-41.9118247580529,25.1297586327792,-1.144));
#463=CARTESIAN_POINT('',(-43.5718247580528,26.1697586327792,3.45424061006527E-015));
#464=CARTESIAN_POINT('',(-43.5718247580528,25.1497586327792,3.45424061006527E-015));
#465=CARTESIAN_POINT('',(-41.8918247580528,26.1697586327792,-5.64747531067239E-015));
#466=CARTESIAN_POINT('',(-43.5718247580528,26.1697586327792,-6.34914913981843E-015));
#467=CARTESIAN_POINT('',(-43.5718247580529,25.4397586327791,-6.34914913981843E-015));
#468=CARTESIAN_POINT('',(-43.5718247580528,25.1297586327792,1.144));
#469=CARTESIAN_POINT('',(-44.5718247580528,26.1697586327792,7.90885203259363E-015));
#470=CARTESIAN_POINT('',(-44.5718247580529,25.4397586327791,7.90885203259363E-015));
#471=CARTESIAN_POINT('',(-43.5478247580528,26.1697586327791,-9.31375517265595E-015));
#472=CARTESIAN_POINT('',(-44.5718247580528,26.1697586327792,4.69309869679851E-015));
#473=CARTESIAN_POINT('',(-44.5718247580528,25.6897586327791,7.35943292839251E-015));
#474=CARTESIAN_POINT('',(-44.5718247580528,25.4197586327791,0.825000000000009));
#475=CARTESIAN_POINT('',(-46.7965461176029,26.1697586327792,-5.57494131433749E-016));
#476=CARTESIAN_POINT('',(-46.7965461176029,25.6897586327791,-5.57494131433749E-016));
#477=CARTESIAN_POINT('',(-44.5478247580528,26.1697586327792,7.51713506257221E-015));
#478=CARTESIAN_POINT('',(-47.2918247580528,25.4421193125541,-0.380991057146991));
#479=CARTESIAN_POINT('',(-47.2918247580528,25.4421193125541,0.380991057146992));
#480=CARTESIAN_POINT('',(-47.2918247580528,25.7887675756321,0.727639320225005));
#481=CARTESIAN_POINT('',(-47.2918247580528,26.5507496899261,0.727639320225001));
#482=CARTESIAN_POINT('',(-47.2918247580528,26.8973979530041,0.380991057146985));
#483=CARTESIAN_POINT('',(-47.2918247580528,26.8973979530041,-0.380991057146998));
#484=CARTESIAN_POINT('',(-47.2918247580528,26.5507496899261,-0.72763932022501));
#485=CARTESIAN_POINT('',(-47.2918247580528,25.7887675756321,-0.727639320225005));
#486=CARTESIAN_POINT('',(-47.2918247580528,25.4421193125541,-0.380991057146991));
#487=CARTESIAN_POINT('',(-47.2918247580528,25.4421193125541,0.380991057146992));
#488=CARTESIAN_POINT('',(-47.2918247580528,25.4409389726666,1.72022840886462E-015));
#489=CARTESIAN_POINT('',(-46.7614142335589,26.1697586327791,-2.11199491864795E-015));
#490=CARTESIAN_POINT('',(-48.2918247580529,26.1697586327792,1.4727514371136E-015));
#491=CARTESIAN_POINT('',(-48.2918247580529,25.4397586327791,4.17121017752197E-015));
#492=CARTESIAN_POINT('',(-47.2918247580528,26.1697586327791,-5.58020441338405E-015));
#493=CARTESIAN_POINT('',(-48.2918247580528,26.1697586327792,0.));
#494=CARTESIAN_POINT('',(-48.2918247580528,25.4197586327792,0.));
#495=CARTESIAN_POINT('',(-48.2918247580529,25.3447586327791,0.825000000000009));
#496=CARTESIAN_POINT('',(-47.2918247580528,26.1697586327792,2.62241400469942E-015));
#497=CARTESIAN_POINT('',(-47.2918247580528,25.4197586327791,-9.24446373305873E-030));
#498=CARTESIAN_POINT('',(-47.2918247580528,26.1697586327792,-8.47032947254216E-016));
#499=CARTESIAN_POINT('',(-46.7918247580529,26.1697586327792,0.));
#500=CARTESIAN_POINT('',(-46.7918247580529,25.6697586327791,0.));
#501=CARTESIAN_POINT('',(-46.7918247580529,26.1697586327792,-4.13532591850872E-016));
#502=CARTESIAN_POINT('',(-44.5918247580528,26.1697586327792,0.));
#503=CARTESIAN_POINT('',(-44.5918247580528,25.6697586327791,0.));
#504=CARTESIAN_POINT('',(-44.5918247580528,26.1697586327792,1.38777878078143E-014));
#505=CARTESIAN_POINT('',(-44.5918247580528,26.1697586327792,0.));
#506=CARTESIAN_POINT('',(-44.5918247580528,25.4197586327792,0.));
#507=CARTESIAN_POINT('',(-44.5918247580528,25.3447586327791,0.825000000000009));
#508=CARTESIAN_POINT('',(-43.5918247580528,26.1697586327792,2.62241400469938E-015));
#509=CARTESIAN_POINT('',(-43.5918247580529,25.4197586327791,-1.54074395550979E-030));
#510=CARTESIAN_POINT('',(-43.5918247580528,26.1697586327792,-4.31647989920788E-015));
#511=CARTESIAN_POINT('',(-43.5918247580528,26.1697586327792,2.69845874040838E-015));
#512=CARTESIAN_POINT('',(-43.5918247580528,25.1297586327792,2.42667172992792E-029));
#513=CARTESIAN_POINT('',(-43.5918247580528,25.0257586327792,1.144));
#514=CARTESIAN_POINT('',(-41.8918247580528,26.1697586327792,0.));
#515=CARTESIAN_POINT('',(-41.8918247580528,25.1297586327792,0.));
#516=CARTESIAN_POINT('',(-41.8918247580528,26.1697586327792,-3.46944695195364E-015));
#517=CARTESIAN_POINT('',(-41.8918247580528,26.1697586327792,-2.66633423159399E-015));
#518=CARTESIAN_POINT('',(-41.8918247580528,25.6747586327791,3.08148791101958E-030));
#519=CARTESIAN_POINT('',(-41.8918247580528,25.0257586327792,-1.144));
#520=CARTESIAN_POINT('',(-34.2068247580528,26.1697586327792,2.43945488809252E-015));
#521=CARTESIAN_POINT('',(-34.2068247580529,25.6747586327792,2.54222752659115E-029));
#522=CARTESIAN_POINT('',(-34.2068247580528,26.1697586327792,-4.41308915965143E-014));
#523=CARTESIAN_POINT('',(-33.7118247580528,26.1697586327792,0.));
#524=CARTESIAN_POINT('',(-34.2068247580528,26.1697586327792,0.));
#525=(
GEOMETRIC_REPRESENTATION_CONTEXT(3)
GLOBAL_UNCERTAINTY_ASSIGNED_CONTEXT((#526))
GLOBAL_UNIT_ASSIGNED_CONTEXT((#532,#528,#527))
REPRESENTATION_CONTEXT('n 01 010 0130 2nxm001-02',
'TOP_LEVEL_ASSEMBLY_PART')
);
#526=UNCERTAINTY_MEASURE_WITH_UNIT(LENGTH_MEASURE(0.0508),#532,
'DISTANCE_ACCURACY_VALUE','Maximum Tolerance applied to model');
#527=(
NAMED_UNIT(*)
SI_UNIT($,.STERADIAN.)
SOLID_ANGLE_UNIT()
);
#528=(
CONVERSION_BASED_UNIT('DEGREE',#530)
NAMED_UNIT(#529)
PLANE_ANGLE_UNIT()
);
#529=DIMENSIONAL_EXPONENTS(0.,0.,0.,0.,0.,0.,0.);
#530=PLANE_ANGLE_MEASURE_WITH_UNIT(PLANE_ANGLE_MEASURE(0.0174532925),#531);
#531=(
NAMED_UNIT(*)
PLANE_ANGLE_UNIT()
SI_UNIT($,.RADIAN.)
);
#532=(
LENGTH_UNIT()
NAMED_UNIT(*)
SI_UNIT(.MILLI.,.METRE.)
);
ENDSEC;
END-ISO-10303-21;
