ISO-10303-21;
HEADER;
/* Generated by software containing ST-Developer
 * from STEP Tools, Inc. (www.steptools.com) 
 */
/* OPTION: using custom schema-name function */

FILE_DESCRIPTION(
/* description */ (''),
/* implementation_level */ '2;1');

FILE_NAME(
/* name */ 'n 01 025 00xx 1nxc001-02.stp',
/* time_stamp */ '2021-09-28T13:43:55+02:00',
/* author */ (''),
/* organization */ (''),
/* preprocessor_version */ 'ST-DEVELOPER v16.7',
/* originating_system */ 'SIEMENS PLM Software NX 12.0',
/* authorisation */ '');

FILE_SCHEMA (('AUTOMOTIVE_DESIGN { 1 0 10303 214 3 1 1 1 }'));
ENDSEC;

DATA;
#10=SHAPE_REPRESENTATION_RELATIONSHIP('None',
'relationship between n 01 025 00xx 1nxc001-02-None and n 01 025 00xx 
1nxc001-02-None',#22,#11);
#11=ADVANCED_BREP_SHAPE_REPRESENTATION('n 01 025 00xx 1nxc001-02-None',
(#40),#377);
#12=SHAPE_DEFINITION_REPRESENTATION(#13,#22);
#13=PRODUCT_DEFINITION_SHAPE('','',#14);
#14=PRODUCT_DEFINITION(' ','',#16,#15);
#15=PRODUCT_DEFINITION_CONTEXT('part definition',#21,'design');
#16=PRODUCT_DEFINITION_FORMATION_WITH_SPECIFIED_SOURCE(' ',' ',#18,
 .NOT_KNOWN.);
#17=PRODUCT_RELATED_PRODUCT_CATEGORY('part','',(#18));
#18=PRODUCT('n 01 025 00xx 1nxc001-02','n 01 025 00xx 1nxc001-02',' ',(#19));
#19=PRODUCT_CONTEXT(' ',#21,'mechanical');
#20=APPLICATION_PROTOCOL_DEFINITION('international standard',
'automotive_design',2010,#21);
#21=APPLICATION_CONTEXT(
'core data for automotive mechanical design processes');
#22=SHAPE_REPRESENTATION('n 01 025 00xx 1nxc001-02-None',(#223),#377);
#23=OVER_RIDING_STYLED_ITEM('',(#28),#63,#26);
#24=DRAUGHTING_PRE_DEFINED_COLOUR('cyan');
#25=PRESENTATION_LAYER_ASSIGNMENT('1','Layer 1',(#40));
#26=STYLED_ITEM('',(#27),#40);
#27=PRESENTATION_STYLE_ASSIGNMENT((#29));
#28=PRESENTATION_STYLE_ASSIGNMENT((#30));
#29=SURFACE_STYLE_USAGE(.BOTH.,#31);
#30=SURFACE_STYLE_USAGE(.BOTH.,#32);
#31=SURFACE_SIDE_STYLE('',(#33));
#32=SURFACE_SIDE_STYLE('',(#34));
#33=SURFACE_STYLE_FILL_AREA(#35);
#34=SURFACE_STYLE_FILL_AREA(#36);
#35=FILL_AREA_STYLE('',(#37));
#36=FILL_AREA_STYLE('',(#38));
#37=FILL_AREA_STYLE_COLOUR('',#39);
#38=FILL_AREA_STYLE_COLOUR('',#24);
#39=COLOUR_RGB('Deep Orange',1.,0.4,0.);
#40=MANIFOLD_SOLID_BREP('',#41);
#41=CLOSED_SHELL('',(#53,#54,#55,#56,#57,#58,#59,#60,#61,#62,#63,#64,#65,
#66,#67,#68,#69));
#42=SPHERICAL_SURFACE('',#249,1.25);
#43=FACE_OUTER_BOUND('',#133,.T.);
#44=VERTEX_LOOP('',#183);
#45=CONICAL_SURFACE('',#235,2.05,45.);
#46=CONICAL_SURFACE('',#239,1.5,44.9999999999999);
#47=CONICAL_SURFACE('',#242,0.875,65.0000000000002);
#48=CONICAL_SURFACE('',#253,1.33786796564403,44.9999999999999);
#49=CONICAL_SURFACE('',#256,1.84999999999999,7.50000000000008);
#50=PLANE('',#229);
#51=PLANE('',#231);
#52=PLANE('',#245);
#53=ADVANCED_FACE('',(#78,#79),#70,.T.);
#54=ADVANCED_FACE('',(#80,#81),#50,.F.);
#55=ADVANCED_FACE('',(#82,#83),#51,.F.);
#56=ADVANCED_FACE('',(#84,#85),#71,.T.);
#57=ADVANCED_FACE('',(#86,#87),#45,.T.);
#58=ADVANCED_FACE('',(#88,#89),#72,.T.);
#59=ADVANCED_FACE('',(#90,#91),#46,.T.);
#60=ADVANCED_FACE('',(#92,#93),#73,.T.);
#61=ADVANCED_FACE('',(#94,#95),#47,.F.);
#62=ADVANCED_FACE('',(#96,#97),#74,.F.);
#63=ADVANCED_FACE('',(#98,#99),#52,.F.);
#64=ADVANCED_FACE('',(#100,#101),#75,.T.);
#65=ADVANCED_FACE('',(#43),#42,.T.);
#66=ADVANCED_FACE('',(#102,#103),#76,.T.);
#67=ADVANCED_FACE('',(#104,#105),#48,.T.);
#68=ADVANCED_FACE('',(#106,#107),#77,.T.);
#69=ADVANCED_FACE('',(#108,#109),#49,.T.);
#70=CYLINDRICAL_SURFACE('',#226,1.85);
#71=CYLINDRICAL_SURFACE('',#233,2.05);
#72=CYLINDRICAL_SURFACE('',#237,1.5);
#73=CYLINDRICAL_SURFACE('',#240,2.05);
#74=CYLINDRICAL_SURFACE('',#243,0.95);
#75=CYLINDRICAL_SURFACE('',#247,2.);
#76=CYLINDRICAL_SURFACE('',#251,1.25);
#77=CYLINDRICAL_SURFACE('',#255,1.85);
#78=FACE_BOUND('',#110,.T.);
#79=FACE_BOUND('',#111,.T.);
#80=FACE_BOUND('',#112,.T.);
#81=FACE_BOUND('',#113,.T.);
#82=FACE_BOUND('',#114,.T.);
#83=FACE_BOUND('',#115,.T.);
#84=FACE_BOUND('',#116,.T.);
#85=FACE_BOUND('',#117,.T.);
#86=FACE_BOUND('',#118,.T.);
#87=FACE_BOUND('',#119,.T.);
#88=FACE_BOUND('',#120,.T.);
#89=FACE_BOUND('',#121,.T.);
#90=FACE_BOUND('',#122,.T.);
#91=FACE_BOUND('',#123,.T.);
#92=FACE_BOUND('',#124,.T.);
#93=FACE_BOUND('',#125,.T.);
#94=FACE_BOUND('',#44,.T.);
#95=FACE_BOUND('',#126,.T.);
#96=FACE_BOUND('',#127,.T.);
#97=FACE_BOUND('',#128,.T.);
#98=FACE_BOUND('',#129,.T.);
#99=FACE_BOUND('',#130,.T.);
#100=FACE_BOUND('',#131,.T.);
#101=FACE_BOUND('',#132,.T.);
#102=FACE_BOUND('',#134,.T.);
#103=FACE_BOUND('',#135,.T.);
#104=FACE_BOUND('',#136,.T.);
#105=FACE_BOUND('',#137,.T.);
#106=FACE_BOUND('',#138,.T.);
#107=FACE_BOUND('',#139,.T.);
#108=FACE_BOUND('',#140,.T.);
#109=FACE_BOUND('',#141,.T.);
#110=EDGE_LOOP('',(#142));
#111=EDGE_LOOP('',(#143));
#112=EDGE_LOOP('',(#144));
#113=EDGE_LOOP('',(#145));
#114=EDGE_LOOP('',(#146));
#115=EDGE_LOOP('',(#147));
#116=EDGE_LOOP('',(#148));
#117=EDGE_LOOP('',(#149));
#118=EDGE_LOOP('',(#150));
#119=EDGE_LOOP('',(#151));
#120=EDGE_LOOP('',(#152));
#121=EDGE_LOOP('',(#153));
#122=EDGE_LOOP('',(#154));
#123=EDGE_LOOP('',(#155));
#124=EDGE_LOOP('',(#156));
#125=EDGE_LOOP('',(#157));
#126=EDGE_LOOP('',(#158));
#127=EDGE_LOOP('',(#159));
#128=EDGE_LOOP('',(#160));
#129=EDGE_LOOP('',(#161));
#130=EDGE_LOOP('',(#162));
#131=EDGE_LOOP('',(#163));
#132=EDGE_LOOP('',(#164));
#133=EDGE_LOOP('',(#165));
#134=EDGE_LOOP('',(#166));
#135=EDGE_LOOP('',(#167));
#136=EDGE_LOOP('',(#168));
#137=EDGE_LOOP('',(#169));
#138=EDGE_LOOP('',(#170));
#139=EDGE_LOOP('',(#171));
#140=EDGE_LOOP('',(#172));
#141=EDGE_LOOP('',(#173));
#142=ORIENTED_EDGE('',*,*,#191,.F.);
#143=ORIENTED_EDGE('',*,*,#192,.F.);
#144=ORIENTED_EDGE('',*,*,#193,.T.);
#145=ORIENTED_EDGE('',*,*,#194,.T.);
#146=ORIENTED_EDGE('',*,*,#195,.F.);
#147=ORIENTED_EDGE('',*,*,#191,.T.);
#148=ORIENTED_EDGE('',*,*,#195,.T.);
#149=ORIENTED_EDGE('',*,*,#196,.F.);
#150=ORIENTED_EDGE('',*,*,#197,.F.);
#151=ORIENTED_EDGE('',*,*,#196,.T.);
#152=ORIENTED_EDGE('',*,*,#198,.F.);
#153=ORIENTED_EDGE('',*,*,#197,.T.);
#154=ORIENTED_EDGE('',*,*,#199,.F.);
#155=ORIENTED_EDGE('',*,*,#198,.T.);
#156=ORIENTED_EDGE('',*,*,#193,.F.);
#157=ORIENTED_EDGE('',*,*,#199,.T.);
#158=ORIENTED_EDGE('',*,*,#200,.T.);
#159=ORIENTED_EDGE('',*,*,#200,.F.);
#160=ORIENTED_EDGE('',*,*,#194,.F.);
#161=ORIENTED_EDGE('',*,*,#192,.T.);
#162=ORIENTED_EDGE('',*,*,#201,.F.);
#163=ORIENTED_EDGE('',*,*,#202,.T.);
#164=ORIENTED_EDGE('',*,*,#201,.T.);
#165=ORIENTED_EDGE('',*,*,#203,.F.);
#166=ORIENTED_EDGE('',*,*,#203,.T.);
#167=ORIENTED_EDGE('',*,*,#204,.F.);
#168=ORIENTED_EDGE('',*,*,#204,.T.);
#169=ORIENTED_EDGE('',*,*,#205,.T.);
#170=ORIENTED_EDGE('',*,*,#206,.T.);
#171=ORIENTED_EDGE('',*,*,#205,.F.);
#172=ORIENTED_EDGE('',*,*,#202,.F.);
#173=ORIENTED_EDGE('',*,*,#206,.F.);
#174=VERTEX_POINT('',#327);
#175=VERTEX_POINT('',#329);
#176=VERTEX_POINT('',#332);
#177=VERTEX_POINT('',#334);
#178=VERTEX_POINT('',#337);
#179=VERTEX_POINT('',#340);
#180=VERTEX_POINT('',#343);
#181=VERTEX_POINT('',#346);
#182=VERTEX_POINT('',#349);
#183=VERTEX_POINT('',#352);
#184=VERTEX_POINT('',#354);
#185=VERTEX_POINT('',#358);
#186=VERTEX_POINT('',#361);
#187=VERTEX_POINT('',#364);
#188=VERTEX_POINT('',#367);
#189=VERTEX_POINT('',#370);
#190=VERTEX_POINT('',#373);
#191=EDGE_CURVE('',#174,#174,#207,.T.);
#192=EDGE_CURVE('',#175,#175,#208,.T.);
#193=EDGE_CURVE('',#176,#176,#209,.T.);
#194=EDGE_CURVE('',#177,#177,#210,.T.);
#195=EDGE_CURVE('',#178,#178,#211,.T.);
#196=EDGE_CURVE('',#179,#179,#212,.T.);
#197=EDGE_CURVE('',#180,#180,#213,.T.);
#198=EDGE_CURVE('',#181,#181,#214,.T.);
#199=EDGE_CURVE('',#182,#182,#215,.T.);
#200=EDGE_CURVE('',#184,#184,#216,.T.);
#201=EDGE_CURVE('',#185,#185,#217,.T.);
#202=EDGE_CURVE('',#186,#186,#218,.T.);
#203=EDGE_CURVE('',#187,#187,#219,.T.);
#204=EDGE_CURVE('',#188,#188,#220,.T.);
#205=EDGE_CURVE('',#189,#189,#221,.T.);
#206=EDGE_CURVE('',#190,#190,#222,.T.);
#207=CIRCLE('',#224,1.85);
#208=CIRCLE('',#225,1.85);
#209=CIRCLE('',#227,2.05);
#210=CIRCLE('',#228,0.95);
#211=CIRCLE('',#230,2.05);
#212=CIRCLE('',#232,2.05);
#213=CIRCLE('',#234,1.5);
#214=CIRCLE('',#236,1.5);
#215=CIRCLE('',#238,2.05);
#216=CIRCLE('',#241,0.95);
#217=CIRCLE('',#244,2.);
#218=CIRCLE('',#246,2.);
#219=CIRCLE('',#248,1.25);
#220=CIRCLE('',#250,1.25);
#221=CIRCLE('',#252,1.85);
#222=CIRCLE('',#254,1.85);
#223=AXIS2_PLACEMENT_3D('',#325,#257,#258);
#224=AXIS2_PLACEMENT_3D('',#326,#259,#260);
#225=AXIS2_PLACEMENT_3D('',#328,#261,#262);
#226=AXIS2_PLACEMENT_3D('',#330,#263,#264);
#227=AXIS2_PLACEMENT_3D('',#331,#265,#266);
#228=AXIS2_PLACEMENT_3D('',#333,#267,#268);
#229=AXIS2_PLACEMENT_3D('',#335,#269,#270);
#230=AXIS2_PLACEMENT_3D('',#336,#271,#272);
#231=AXIS2_PLACEMENT_3D('',#338,#273,#274);
#232=AXIS2_PLACEMENT_3D('',#339,#275,#276);
#233=AXIS2_PLACEMENT_3D('',#341,#277,#278);
#234=AXIS2_PLACEMENT_3D('',#342,#279,#280);
#235=AXIS2_PLACEMENT_3D('',#344,#281,#282);
#236=AXIS2_PLACEMENT_3D('',#345,#283,#284);
#237=AXIS2_PLACEMENT_3D('',#347,#285,#286);
#238=AXIS2_PLACEMENT_3D('',#348,#287,#288);
#239=AXIS2_PLACEMENT_3D('',#350,#289,#290);
#240=AXIS2_PLACEMENT_3D('',#351,#291,#292);
#241=AXIS2_PLACEMENT_3D('',#353,#293,#294);
#242=AXIS2_PLACEMENT_3D('',#355,#295,#296);
#243=AXIS2_PLACEMENT_3D('',#356,#297,#298);
#244=AXIS2_PLACEMENT_3D('',#357,#299,#300);
#245=AXIS2_PLACEMENT_3D('',#359,#301,#302);
#246=AXIS2_PLACEMENT_3D('',#360,#303,#304);
#247=AXIS2_PLACEMENT_3D('',#362,#305,#306);
#248=AXIS2_PLACEMENT_3D('',#363,#307,#308);
#249=AXIS2_PLACEMENT_3D('',#365,#309,#310);
#250=AXIS2_PLACEMENT_3D('',#366,#311,#312);
#251=AXIS2_PLACEMENT_3D('',#368,#313,#314);
#252=AXIS2_PLACEMENT_3D('',#369,#315,#316);
#253=AXIS2_PLACEMENT_3D('',#371,#317,#318);
#254=AXIS2_PLACEMENT_3D('',#372,#319,#320);
#255=AXIS2_PLACEMENT_3D('',#374,#321,#322);
#256=AXIS2_PLACEMENT_3D('',#375,#323,#324);
#257=DIRECTION('',(0.,0.,1.));
#258=DIRECTION('',(1.,0.,0.));
#259=DIRECTION('',(-2.56842640025223E-16,-1.,0.));
#260=DIRECTION('',(1.,-2.34422091348217E-16,0.));
#261=DIRECTION('',(0.,1.,0.));
#262=DIRECTION('',(0.,0.,1.));
#263=DIRECTION('',(-2.56842640025223E-16,-1.,0.));
#264=DIRECTION('',(1.,0.,0.));
#265=DIRECTION('',(-2.56842640025223E-16,-1.,0.));
#266=DIRECTION('',(1.,0.,0.));
#267=DIRECTION('',(2.56842640025223E-16,1.,0.));
#268=DIRECTION('',(-0.999999999999999,0.,0.));
#269=DIRECTION('',(2.56842640025223E-16,1.,0.));
#270=DIRECTION('',(-1.,2.56739074444567E-16,0.));
#271=DIRECTION('',(-2.56842640025223E-16,-1.,0.));
#272=DIRECTION('',(1.,-2.11551643411806E-16,0.));
#273=DIRECTION('',(-2.56842640025223E-16,-1.,0.));
#274=DIRECTION('',(1.,-2.56739074444567E-16,0.));
#275=DIRECTION('',(-2.56842640025223E-16,-1.,0.));
#276=DIRECTION('',(1.,-4.23103286823612E-16,0.));
#277=DIRECTION('',(-2.56842640025223E-16,-1.,0.));
#278=DIRECTION('',(1.,0.,0.));
#279=DIRECTION('',(-2.56842640025223E-16,-1.,0.));
#280=DIRECTION('',(0.999999999999999,0.,0.));
#281=DIRECTION('',(2.56842640025223E-16,1.,0.));
#282=DIRECTION('',(-1.,2.5015472509221E-16,0.));
#283=DIRECTION('',(-2.56842640025223E-16,-1.,0.));
#284=DIRECTION('',(1.,0.,0.));
#285=DIRECTION('',(-2.56842640025223E-16,-1.,0.));
#286=DIRECTION('',(0.999999999999999,0.,0.));
#287=DIRECTION('',(-2.56842640025223E-16,-1.,0.));
#288=DIRECTION('',(1.,0.,0.));
#289=DIRECTION('',(-2.56842640025223E-16,-1.,0.));
#290=DIRECTION('',(1.,-3.04854050695875E-16,0.));
#291=DIRECTION('',(-2.56842640025223E-16,-1.,0.));
#292=DIRECTION('',(1.,0.,0.));
#293=DIRECTION('',(-2.56842640025223E-16,-1.,0.));
#294=DIRECTION('',(0.999999999999999,0.,0.));
#295=DIRECTION('',(-2.56842640025223E-16,-1.,0.));
#296=DIRECTION('',(1.,-1.90421749473634E-16,0.));
#297=DIRECTION('',(-2.56842640025223E-16,-1.,0.));
#298=DIRECTION('',(0.999999999999999,0.,0.));
#299=DIRECTION('',(0.,1.,0.));
#300=DIRECTION('',(0.,0.,1.));
#301=DIRECTION('',(0.,1.,0.));
#302=DIRECTION('',(0.,0.,1.));
#303=DIRECTION('',(0.,-1.,0.));
#304=DIRECTION('',(0.,0.,1.));
#305=DIRECTION('',(0.,-1.,0.));
#306=DIRECTION('',(0.,0.,-1.));
#307=DIRECTION('',(-2.56842640025223E-16,-1.,0.));
#308=DIRECTION('',(1.,0.,0.));
#309=DIRECTION('',(0.,-0.999999999999999,0.));
#310=DIRECTION('',(1.,0.,0.));
#311=DIRECTION('',(-2.56842640025223E-16,-1.,0.));
#312=DIRECTION('',(1.,-3.46944695195361E-16,0.));
#313=DIRECTION('',(-2.56842640025223E-16,-1.,0.));
#314=DIRECTION('',(1.,0.,0.));
#315=DIRECTION('',(2.56842640025223E-16,1.,0.));
#316=DIRECTION('',(1.,-2.34422091348217E-16,0.));
#317=DIRECTION('',(-2.56842640025223E-16,-1.,0.));
#318=DIRECTION('',(1.,-2.11786602427225E-16,0.));
#319=DIRECTION('',(0.,1.,0.));
#320=DIRECTION('',(0.,0.,1.));
#321=DIRECTION('',(-2.56842640025223E-16,-1.,0.));
#322=DIRECTION('',(1.,0.,0.));
#323=DIRECTION('',(0.,-1.,0.));
#324=DIRECTION('',(0.,1.21818189780577E-16,-1.));
#325=CARTESIAN_POINT('',(0.,0.,0.));
#326=CARTESIAN_POINT('',(-30.,-2.35,7.24224204717813E-15));
#327=CARTESIAN_POINT('',(-28.15,-2.35,7.24224204717813E-15));
#328=CARTESIAN_POINT('',(-30.,-3.46944695195361E-15,7.24224204717813E-15));
#329=CARTESIAN_POINT('',(-30.,-3.46944695195361E-15,1.85000000000001));
#330=CARTESIAN_POINT('',(-30.,-11.3,7.24224204717813E-15));
#331=CARTESIAN_POINT('',(-30.,-11.3,7.24224204717813E-15));
#332=CARTESIAN_POINT('',(-27.95,-11.3,7.24224204717813E-15));
#333=CARTESIAN_POINT('',(-30.,-11.3,7.24224204717813E-15));
#334=CARTESIAN_POINT('',(-30.95,-11.3,7.24224204717813E-15));
#335=CARTESIAN_POINT('',(-27.95,-11.3,7.24224204717813E-15));
#336=CARTESIAN_POINT('',(-30.,-2.35,7.24224204717813E-15));
#337=CARTESIAN_POINT('',(-27.95,-2.35,7.24224204717813E-15));
#338=CARTESIAN_POINT('',(-28.15,-2.35,7.24224204717813E-15));
#339=CARTESIAN_POINT('',(-30.,-4.25,7.24224204717813E-15));
#340=CARTESIAN_POINT('',(-27.95,-4.25000000000001,7.24224204717813E-15));
#341=CARTESIAN_POINT('',(-30.,-11.3,7.24224204717813E-15));
#342=CARTESIAN_POINT('',(-30.,-4.80000000000001,7.24224204717813E-15));
#343=CARTESIAN_POINT('',(-28.5,-4.80000000000001,7.24224204717813E-15));
#344=CARTESIAN_POINT('',(-30.,-4.25,7.24224204717813E-15));
#345=CARTESIAN_POINT('',(-30.,-9.3,7.24224204717813E-15));
#346=CARTESIAN_POINT('',(-28.5,-9.3,7.24224204717813E-15));
#347=CARTESIAN_POINT('',(-30.,-11.3,7.24224204717813E-15));
#348=CARTESIAN_POINT('',(-30.,-9.85,7.24224204717813E-15));
#349=CARTESIAN_POINT('',(-27.95,-9.85,7.24224204717813E-15));
#350=CARTESIAN_POINT('',(-30.,-9.3,7.24224204717813E-15));
#351=CARTESIAN_POINT('',(-30.,-11.3,7.24224204717813E-15));
#352=CARTESIAN_POINT('',(-30.,-3.89198079911439,7.24224204717813E-15));
#353=CARTESIAN_POINT('',(-30.,-4.33497307436163,7.24224204717813E-15));
#354=CARTESIAN_POINT('',(-29.05,-4.33497307436163,7.24224204717813E-15));
#355=CARTESIAN_POINT('',(-30.,-4.30000000000001,7.24224204717813E-15));
#356=CARTESIAN_POINT('',(-30.,-11.3,7.24224204717813E-15));
#357=CARTESIAN_POINT('',(-30.,-3.46944695195361E-15,-2.41708117400096E-16));
#358=CARTESIAN_POINT('',(-30.,-3.46944695195361E-15,2.));
#359=CARTESIAN_POINT('',(-30.8991622700371,-3.46944695195361E-15,1.81442338282489));
#360=CARTESIAN_POINT('',(-30.,0.760636883091175,-2.41708117400096E-16));
#361=CARTESIAN_POINT('',(-30.,0.760636883091175,2.));
#362=CARTESIAN_POINT('',(-30.,1.9,-2.41708117400096E-16));
#363=CARTESIAN_POINT('',(-30.,14.25,7.24224204717813E-15));
#364=CARTESIAN_POINT('',(-28.75,14.25,7.24224204717813E-15));
#365=CARTESIAN_POINT('',(-30.,14.25,7.24224204717813E-15));
#366=CARTESIAN_POINT('',(-30.,3.5,7.24224204717813E-15));
#367=CARTESIAN_POINT('',(-28.75,3.5,7.24224204717813E-15));
#368=CARTESIAN_POINT('',(-30.,-11.3,7.24224204717813E-15));
#369=CARTESIAN_POINT('',(-30.,2.9,7.24224204717813E-15));
#370=CARTESIAN_POINT('',(-28.15,2.9,7.24224204717813E-15));
#371=CARTESIAN_POINT('',(-30.,3.41213203435596,7.24224204717813E-15));
#372=CARTESIAN_POINT('',(-30.,1.9,7.24224204717813E-15));
#373=CARTESIAN_POINT('',(-30.,1.9,1.85000000000001));
#374=CARTESIAN_POINT('',(-30.,-11.3,7.24224204717813E-15));
#375=CARTESIAN_POINT('',(-30.,1.9,-2.41708117400096E-16));
#376=MECHANICAL_DESIGN_GEOMETRIC_PRESENTATION_REPRESENTATION('',(#26,#23),
#377);
#377=(
GEOMETRIC_REPRESENTATION_CONTEXT(3)
GLOBAL_UNCERTAINTY_ASSIGNED_CONTEXT((#378))
GLOBAL_UNIT_ASSIGNED_CONTEXT((#384,#380,#379))
REPRESENTATION_CONTEXT('n 01 025 00xx 1nxc001-02',
'TOP_LEVEL_ASSEMBLY_PART')
);
#378=UNCERTAINTY_MEASURE_WITH_UNIT(LENGTH_MEASURE(2.E-5),#384,
'DISTANCE_ACCURACY_VALUE','Maximum Tolerance applied to model');
#379=(
NAMED_UNIT(*)
SI_UNIT($,.STERADIAN.)
SOLID_ANGLE_UNIT()
);
#380=(
CONVERSION_BASED_UNIT('DEGREE',#382)
NAMED_UNIT(#381)
PLANE_ANGLE_UNIT()
);
#381=DIMENSIONAL_EXPONENTS(0.,0.,0.,0.,0.,0.,0.);
#382=PLANE_ANGLE_MEASURE_WITH_UNIT(PLANE_ANGLE_MEASURE(0.0174532925),#383);
#383=(
NAMED_UNIT(*)
PLANE_ANGLE_UNIT()
SI_UNIT($,.RADIAN.)
);
#384=(
LENGTH_UNIT()
NAMED_UNIT(*)
SI_UNIT(.MILLI.,.METRE.)
);
ENDSEC;
END-ISO-10303-21;
