ISO-10303-21;
HEADER;
/* Generated by software containing ST-Developer
 * from STEP Tools, Inc. (www.steptools.com) 
 */
/* OPTION: using custom schema-name function */

FILE_DESCRIPTION(
/* description */ (''),
/* implementation_level */ '2;1');

FILE_NAME(
/* name */ 'n 01 025 0033.stp',
/* time_stamp */ '2019-01-03T14:49:08+01:00',
/* author */ (''),
/* organization */ (''),
/* preprocessor_version */ 'ST-DEVELOPER v16',
/* originating_system */ 'SIEMENS PLM Software NX 11.0',
/* authorisation */ '');

FILE_SCHEMA (('AUTOMOTIVE_DESIGN { 1 0 10303 214 3 1 1 1 }'));
ENDSEC;

DATA;
#10=SHAPE_REPRESENTATION_RELATIONSHIP('None',
'relationship between n 01 025 0033nxm001-01-None and n 01 025 0033nxm
001-01-None',#22,#11);
#11=ADVANCED_BREP_SHAPE_REPRESENTATION('n 01 025 0033nxm001-01-None',(#54),
#367);
#12=SHAPE_DEFINITION_REPRESENTATION(#13,#22);
#13=PRODUCT_DEFINITION_SHAPE('','',#14);
#14=PRODUCT_DEFINITION(' ','',#16,#15);
#15=PRODUCT_DEFINITION_CONTEXT('part definition',#21,'design');
#16=PRODUCT_DEFINITION_FORMATION_WITH_SPECIFIED_SOURCE(' ',' ',#18,
 .NOT_KNOWN.);
#17=PRODUCT_RELATED_PRODUCT_CATEGORY('part','',(#18));
#18=PRODUCT('n 01 025 0033nxm001-01','n 01 025 0033nxm001-01',' ',(#19));
#19=PRODUCT_CONTEXT(' ',#21,'mechanical');
#20=APPLICATION_PROTOCOL_DEFINITION('international standard',
'automotive_design',2010,#21);
#21=APPLICATION_CONTEXT(
'core data for automotive mechanical design processes');
#22=SHAPE_REPRESENTATION('n 01 025 0033nxm001-01-None',(#223),#367);
#23=OVER_RIDING_STYLED_ITEM('',(#30),#81,#28);
#24=OVER_RIDING_STYLED_ITEM('',(#31),#82,#28);
#25=OVER_RIDING_STYLED_ITEM('',(#32),#83,#28);
#26=DRAUGHTING_PRE_DEFINED_COLOUR('cyan');
#27=PRESENTATION_LAYER_ASSIGNMENT('1','Layer 1',(#54));
#28=STYLED_ITEM('',(#29),#54);
#29=PRESENTATION_STYLE_ASSIGNMENT((#33));
#30=PRESENTATION_STYLE_ASSIGNMENT((#34));
#31=PRESENTATION_STYLE_ASSIGNMENT((#35));
#32=PRESENTATION_STYLE_ASSIGNMENT((#36));
#33=SURFACE_STYLE_USAGE(.BOTH.,#37);
#34=SURFACE_STYLE_USAGE(.BOTH.,#38);
#35=SURFACE_STYLE_USAGE(.BOTH.,#39);
#36=SURFACE_STYLE_USAGE(.BOTH.,#40);
#37=SURFACE_SIDE_STYLE('',(#41));
#38=SURFACE_SIDE_STYLE('',(#42));
#39=SURFACE_SIDE_STYLE('',(#43));
#40=SURFACE_SIDE_STYLE('',(#44));
#41=SURFACE_STYLE_FILL_AREA(#45);
#42=SURFACE_STYLE_FILL_AREA(#46);
#43=SURFACE_STYLE_FILL_AREA(#47);
#44=SURFACE_STYLE_FILL_AREA(#48);
#45=FILL_AREA_STYLE('',(#49));
#46=FILL_AREA_STYLE('',(#50));
#47=FILL_AREA_STYLE('',(#51));
#48=FILL_AREA_STYLE('',(#52));
#49=FILL_AREA_STYLE_COLOUR('',#53);
#50=FILL_AREA_STYLE_COLOUR('',#26);
#51=FILL_AREA_STYLE_COLOUR('',#26);
#52=FILL_AREA_STYLE_COLOUR('',#26);
#53=COLOUR_RGB('Tiefes Orange',1.,0.4,0.);
#54=MANIFOLD_SOLID_BREP('',#55);
#55=CLOSED_SHELL('',(#68,#69,#70,#71,#72,#73,#74,#75,#76,#77,#78,#79,#80,
#81,#82,#83));
#56=PLANE('',#236);
#57=PLANE('',#238);
#58=PLANE('',#248);
#59=PLANE('',#253);
#60=FACE_OUTER_BOUND('',#128,.T.);
#61=FACE_OUTER_BOUND('',#129,.T.);
#62=CONICAL_SURFACE('',#229,2.05,45.0000000000002);
#63=CONICAL_SURFACE('',#233,1.95,44.9999999999998);
#64=CONICAL_SURFACE('',#240,0.4,45.0000000000001);
#65=CONICAL_SURFACE('',#243,1.33786796564403,45.0000000000001);
#66=CONICAL_SURFACE('',#251,1.8,7.66680426181414);
#67=CONICAL_SURFACE('',#254,1.975,3.01278750418332);
#68=ADVANCED_FACE('',(#90,#91),#84,.T.);
#69=ADVANCED_FACE('',(#92,#93),#62,.T.);
#70=ADVANCED_FACE('',(#94,#95),#85,.T.);
#71=ADVANCED_FACE('',(#96,#97),#63,.T.);
#72=ADVANCED_FACE('',(#98,#99),#86,.T.);
#73=ADVANCED_FACE('',(#60),#56,.F.);
#74=ADVANCED_FACE('',(#61),#57,.F.);
#75=ADVANCED_FACE('',(#100,#101),#64,.T.);
#76=ADVANCED_FACE('',(#102,#103),#87,.T.);
#77=ADVANCED_FACE('',(#104,#105),#65,.T.);
#78=ADVANCED_FACE('',(#106,#107),#88,.T.);
#79=ADVANCED_FACE('',(#108,#109),#58,.F.);
#80=ADVANCED_FACE('',(#110,#111),#89,.T.);
#81=ADVANCED_FACE('',(#112,#113),#66,.T.);
#82=ADVANCED_FACE('',(#114,#115),#59,.F.);
#83=ADVANCED_FACE('',(#116,#117),#67,.T.);
#84=CYLINDRICAL_SURFACE('',#226,1.825);
#85=CYLINDRICAL_SURFACE('',#231,1.95);
#86=CYLINDRICAL_SURFACE('',#235,2.05);
#87=CYLINDRICAL_SURFACE('',#242,1.25);
#88=CYLINDRICAL_SURFACE('',#246,1.85);
#89=CYLINDRICAL_SURFACE('',#249,2.05);
#90=FACE_BOUND('',#118,.T.);
#91=FACE_BOUND('',#119,.T.);
#92=FACE_BOUND('',#120,.T.);
#93=FACE_BOUND('',#121,.T.);
#94=FACE_BOUND('',#122,.T.);
#95=FACE_BOUND('',#123,.T.);
#96=FACE_BOUND('',#124,.T.);
#97=FACE_BOUND('',#125,.T.);
#98=FACE_BOUND('',#126,.T.);
#99=FACE_BOUND('',#127,.T.);
#100=FACE_BOUND('',#130,.T.);
#101=FACE_BOUND('',#131,.T.);
#102=FACE_BOUND('',#132,.T.);
#103=FACE_BOUND('',#133,.T.);
#104=FACE_BOUND('',#134,.T.);
#105=FACE_BOUND('',#135,.T.);
#106=FACE_BOUND('',#136,.T.);
#107=FACE_BOUND('',#137,.T.);
#108=FACE_BOUND('',#138,.T.);
#109=FACE_BOUND('',#139,.T.);
#110=FACE_BOUND('',#140,.T.);
#111=FACE_BOUND('',#141,.T.);
#112=FACE_BOUND('',#142,.T.);
#113=FACE_BOUND('',#143,.T.);
#114=FACE_BOUND('',#144,.T.);
#115=FACE_BOUND('',#145,.T.);
#116=FACE_BOUND('',#146,.T.);
#117=FACE_BOUND('',#147,.T.);
#118=EDGE_LOOP('',(#148));
#119=EDGE_LOOP('',(#149));
#120=EDGE_LOOP('',(#150));
#121=EDGE_LOOP('',(#151));
#122=EDGE_LOOP('',(#152));
#123=EDGE_LOOP('',(#153));
#124=EDGE_LOOP('',(#154));
#125=EDGE_LOOP('',(#155));
#126=EDGE_LOOP('',(#156));
#127=EDGE_LOOP('',(#157));
#128=EDGE_LOOP('',(#158));
#129=EDGE_LOOP('',(#159));
#130=EDGE_LOOP('',(#160));
#131=EDGE_LOOP('',(#161));
#132=EDGE_LOOP('',(#162));
#133=EDGE_LOOP('',(#163));
#134=EDGE_LOOP('',(#164));
#135=EDGE_LOOP('',(#165));
#136=EDGE_LOOP('',(#166));
#137=EDGE_LOOP('',(#167));
#138=EDGE_LOOP('',(#168));
#139=EDGE_LOOP('',(#169));
#140=EDGE_LOOP('',(#170));
#141=EDGE_LOOP('',(#171));
#142=EDGE_LOOP('',(#172));
#143=EDGE_LOOP('',(#173));
#144=EDGE_LOOP('',(#174));
#145=EDGE_LOOP('',(#175));
#146=EDGE_LOOP('',(#176));
#147=EDGE_LOOP('',(#177));
#148=ORIENTED_EDGE('',*,*,#193,.F.);
#149=ORIENTED_EDGE('',*,*,#194,.T.);
#150=ORIENTED_EDGE('',*,*,#195,.F.);
#151=ORIENTED_EDGE('',*,*,#196,.T.);
#152=ORIENTED_EDGE('',*,*,#197,.F.);
#153=ORIENTED_EDGE('',*,*,#195,.T.);
#154=ORIENTED_EDGE('',*,*,#198,.F.);
#155=ORIENTED_EDGE('',*,*,#197,.T.);
#156=ORIENTED_EDGE('',*,*,#199,.F.);
#157=ORIENTED_EDGE('',*,*,#198,.T.);
#158=ORIENTED_EDGE('',*,*,#199,.T.);
#159=ORIENTED_EDGE('',*,*,#200,.F.);
#160=ORIENTED_EDGE('',*,*,#201,.F.);
#161=ORIENTED_EDGE('',*,*,#200,.T.);
#162=ORIENTED_EDGE('',*,*,#202,.F.);
#163=ORIENTED_EDGE('',*,*,#201,.T.);
#164=ORIENTED_EDGE('',*,*,#194,.F.);
#165=ORIENTED_EDGE('',*,*,#202,.T.);
#166=ORIENTED_EDGE('',*,*,#203,.F.);
#167=ORIENTED_EDGE('',*,*,#204,.T.);
#168=ORIENTED_EDGE('',*,*,#205,.F.);
#169=ORIENTED_EDGE('',*,*,#203,.T.);
#170=ORIENTED_EDGE('',*,*,#196,.F.);
#171=ORIENTED_EDGE('',*,*,#205,.T.);
#172=ORIENTED_EDGE('',*,*,#206,.F.);
#173=ORIENTED_EDGE('',*,*,#193,.T.);
#174=ORIENTED_EDGE('',*,*,#204,.F.);
#175=ORIENTED_EDGE('',*,*,#207,.T.);
#176=ORIENTED_EDGE('',*,*,#207,.F.);
#177=ORIENTED_EDGE('',*,*,#206,.T.);
#178=VERTEX_POINT('',#321);
#179=VERTEX_POINT('',#323);
#180=VERTEX_POINT('',#326);
#181=VERTEX_POINT('',#328);
#182=VERTEX_POINT('',#331);
#183=VERTEX_POINT('',#334);
#184=VERTEX_POINT('',#337);
#185=VERTEX_POINT('',#341);
#186=VERTEX_POINT('',#344);
#187=VERTEX_POINT('',#347);
#188=VERTEX_POINT('',#351);
#189=VERTEX_POINT('',#353);
#190=VERTEX_POINT('',#356);
#191=VERTEX_POINT('',#360);
#192=VERTEX_POINT('',#363);
#193=EDGE_CURVE('',#178,#178,#208,.T.);
#194=EDGE_CURVE('',#179,#179,#209,.T.);
#195=EDGE_CURVE('',#180,#180,#210,.T.);
#196=EDGE_CURVE('',#181,#181,#211,.T.);
#197=EDGE_CURVE('',#182,#182,#212,.T.);
#198=EDGE_CURVE('',#183,#183,#213,.T.);
#199=EDGE_CURVE('',#184,#184,#214,.T.);
#200=EDGE_CURVE('',#185,#185,#215,.T.);
#201=EDGE_CURVE('',#186,#186,#216,.T.);
#202=EDGE_CURVE('',#187,#187,#217,.T.);
#203=EDGE_CURVE('',#188,#188,#218,.T.);
#204=EDGE_CURVE('',#189,#189,#219,.T.);
#205=EDGE_CURVE('',#190,#190,#220,.T.);
#206=EDGE_CURVE('',#191,#191,#221,.T.);
#207=EDGE_CURVE('',#192,#192,#222,.T.);
#208=CIRCLE('',#224,1.825);
#209=CIRCLE('',#225,1.825);
#210=CIRCLE('',#227,1.95);
#211=CIRCLE('',#228,2.05);
#212=CIRCLE('',#230,1.95);
#213=CIRCLE('',#232,2.05);
#214=CIRCLE('',#234,2.05);
#215=CIRCLE('',#237,0.4);
#216=CIRCLE('',#239,1.25);
#217=CIRCLE('',#241,1.25);
#218=CIRCLE('',#244,1.85);
#219=CIRCLE('',#245,1.85);
#220=CIRCLE('',#247,2.05);
#221=CIRCLE('',#250,1.975);
#222=CIRCLE('',#252,2.025);
#223=AXIS2_PLACEMENT_3D('',#319,#255,#256);
#224=AXIS2_PLACEMENT_3D('',#320,#257,#258);
#225=AXIS2_PLACEMENT_3D('',#322,#259,#260);
#226=AXIS2_PLACEMENT_3D('',#324,#261,#262);
#227=AXIS2_PLACEMENT_3D('',#325,#263,#264);
#228=AXIS2_PLACEMENT_3D('',#327,#265,#266);
#229=AXIS2_PLACEMENT_3D('',#329,#267,#268);
#230=AXIS2_PLACEMENT_3D('',#330,#269,#270);
#231=AXIS2_PLACEMENT_3D('',#332,#271,#272);
#232=AXIS2_PLACEMENT_3D('',#333,#273,#274);
#233=AXIS2_PLACEMENT_3D('',#335,#275,#276);
#234=AXIS2_PLACEMENT_3D('',#336,#277,#278);
#235=AXIS2_PLACEMENT_3D('',#338,#279,#280);
#236=AXIS2_PLACEMENT_3D('',#339,#281,#282);
#237=AXIS2_PLACEMENT_3D('',#340,#283,#284);
#238=AXIS2_PLACEMENT_3D('',#342,#285,#286);
#239=AXIS2_PLACEMENT_3D('',#343,#287,#288);
#240=AXIS2_PLACEMENT_3D('',#345,#289,#290);
#241=AXIS2_PLACEMENT_3D('',#346,#291,#292);
#242=AXIS2_PLACEMENT_3D('',#348,#293,#294);
#243=AXIS2_PLACEMENT_3D('',#349,#295,#296);
#244=AXIS2_PLACEMENT_3D('',#350,#297,#298);
#245=AXIS2_PLACEMENT_3D('',#352,#299,#300);
#246=AXIS2_PLACEMENT_3D('',#354,#301,#302);
#247=AXIS2_PLACEMENT_3D('',#355,#303,#304);
#248=AXIS2_PLACEMENT_3D('',#357,#305,#306);
#249=AXIS2_PLACEMENT_3D('',#358,#307,#308);
#250=AXIS2_PLACEMENT_3D('',#359,#309,#310);
#251=AXIS2_PLACEMENT_3D('',#361,#311,#312);
#252=AXIS2_PLACEMENT_3D('',#362,#313,#314);
#253=AXIS2_PLACEMENT_3D('',#364,#315,#316);
#254=AXIS2_PLACEMENT_3D('',#365,#317,#318);
#255=DIRECTION('',(0.,0.,1.));
#256=DIRECTION('',(1.,0.,0.));
#257=DIRECTION('',(-6.66133814775094E-17,-1.,0.));
#258=DIRECTION('',(1.,-1.18816676436768E-16,0.));
#259=DIRECTION('',(-2.56842640025223E-16,-1.,0.));
#260=DIRECTION('',(1.,-2.37633352873535E-16,0.));
#261=DIRECTION('',(-2.56842640025223E-16,-1.,0.));
#262=DIRECTION('',(1.,0.,0.));
#263=DIRECTION('',(-2.56842640025223E-16,-1.,0.));
#264=DIRECTION('',(1.,-4.44800891276105E-16,0.));
#265=DIRECTION('',(-2.56842640025223E-16,-1.,0.));
#266=DIRECTION('',(1.,-4.23103286823612E-16,0.));
#267=DIRECTION('',(2.56842640025223E-16,1.,0.));
#268=DIRECTION('',(-1.,2.10337710025628E-16,0.));
#269=DIRECTION('',(-2.56842640025223E-16,-1.,0.));
#270=DIRECTION('',(1.,0.,0.));
#271=DIRECTION('',(-2.56842640025223E-16,-1.,0.));
#272=DIRECTION('',(1.,0.,0.));
#273=DIRECTION('',(-2.56842640025223E-16,-1.,0.));
#274=DIRECTION('',(1.,0.,0.));
#275=DIRECTION('',(-2.56842640025223E-16,-1.,0.));
#276=DIRECTION('',(1.,-2.83940965178102E-16,0.));
#277=DIRECTION('',(-2.56842640025223E-16,-1.,0.));
#278=DIRECTION('',(1.,0.,0.));
#279=DIRECTION('',(-2.56842640025223E-16,-1.,0.));
#280=DIRECTION('',(1.,0.,0.));
#281=DIRECTION('',(2.56842640025223E-16,1.,0.));
#282=DIRECTION('',(-1.,2.56739074444567E-16,0.));
#283=DIRECTION('',(-2.56842640025223E-16,-1.,0.));
#284=DIRECTION('',(1.,0.,0.));
#285=DIRECTION('',(-2.56842640025223E-16,-1.,0.));
#286=DIRECTION('',(1.,-2.56739074444567E-16,0.));
#287=DIRECTION('',(-2.56842640025223E-16,-1.,0.));
#288=DIRECTION('',(1.,0.,0.));
#289=DIRECTION('',(-2.56842640025223E-16,-1.,0.));
#290=DIRECTION('',(1.,-2.37562091372273E-16,0.));
#291=DIRECTION('',(-2.56842640025223E-16,-1.,0.));
#292=DIRECTION('',(1.,-3.46944695195362E-16,0.));
#293=DIRECTION('',(-2.56842640025223E-16,-1.,0.));
#294=DIRECTION('',(1.,0.,0.));
#295=DIRECTION('',(-2.56842640025223E-16,-1.,0.));
#296=DIRECTION('',(1.,-1.8883222629503E-16,0.));
#297=DIRECTION('',(-2.56842640025223E-16,-1.,0.));
#298=DIRECTION('',(1.,-2.34422091348217E-16,0.));
#299=DIRECTION('',(-2.56842640025223E-16,-1.,0.));
#300=DIRECTION('',(1.,-2.34422091348217E-16,0.));
#301=DIRECTION('',(-2.56842640025223E-16,-1.,0.));
#302=DIRECTION('',(1.,0.,0.));
#303=DIRECTION('',(-2.56842640025223E-16,-1.,0.));
#304=DIRECTION('',(1.,-2.11551643411806E-16,0.));
#305=DIRECTION('',(-2.56842640025223E-16,-1.,0.));
#306=DIRECTION('',(1.,-2.56739074444567E-16,0.));
#307=DIRECTION('',(-2.56842640025223E-16,-1.,0.));
#308=DIRECTION('',(1.,0.,0.));
#309=DIRECTION('',(-6.66133814775094E-17,-1.,0.));
#310=DIRECTION('',(1.,-5.48963125309117E-17,0.));
#311=DIRECTION('',(-6.66133814775094E-17,-1.,0.));
#312=DIRECTION('',(1.,3.17911993736588E-17,0.));
#313=DIRECTION('',(-6.66133814775094E-17,-1.,0.));
#314=DIRECTION('',(-1.,5.35408480239756E-17,0.));
#315=DIRECTION('',(6.66133814775094E-17,1.,0.));
#316=DIRECTION('',(-1.,6.657001339061E-17,0.));
#317=DIRECTION('',(-6.66133814775094E-17,-1.,0.));
#318=DIRECTION('',(1.,6.83004785365682E-16,0.));
#319=CARTESIAN_POINT('',(0.,0.,0.));
#320=CARTESIAN_POINT('',(-1.5455650864169,1.38659637059484,5.85482703093719E-33));
#321=CARTESIAN_POINT('',(-2.55797041146256,1.38659637059484,-1.51844013968914));
#322=CARTESIAN_POINT('',(-1.5455650864169,2.34731065630913,0.));
#323=CARTESIAN_POINT('',(0.279434913583102,2.34731065630913,0.));
#324=CARTESIAN_POINT('',(-1.5455650864169,-11.8776893436909,0.));
#325=CARTESIAN_POINT('',(-1.5455650864169,-5.37768934369087,0.));
#326=CARTESIAN_POINT('',(0.404434913583099,-5.37768934369087,0.));
#327=CARTESIAN_POINT('',(-1.5455650864169,-5.27768934369087,0.));
#328=CARTESIAN_POINT('',(0.504434913583099,-5.27768934369087,0.));
#329=CARTESIAN_POINT('',(-1.5455650864169,-5.27768934369087,0.));
#330=CARTESIAN_POINT('',(-1.5455650864169,-9.87768934369087,0.));
#331=CARTESIAN_POINT('',(0.404434913583097,-9.87768934369087,0.));
#332=CARTESIAN_POINT('',(-1.5455650864169,-11.8776893436909,0.));
#333=CARTESIAN_POINT('',(-1.5455650864169,-9.97768934369087,0.));
#334=CARTESIAN_POINT('',(0.504434913583097,-9.97768934369087,0.));
#335=CARTESIAN_POINT('',(-1.5455650864169,-9.87768934369087,0.));
#336=CARTESIAN_POINT('',(-1.5455650864169,-11.8776893436909,0.));
#337=CARTESIAN_POINT('',(0.504434913583096,-11.8776893436909,0.));
#338=CARTESIAN_POINT('',(-1.5455650864169,-11.8776893436909,0.));
#339=CARTESIAN_POINT('',(0.504434913583096,-11.8776893436909,0.));
#340=CARTESIAN_POINT('',(-1.5455650864169,14.9223106563091,0.));
#341=CARTESIAN_POINT('',(-1.14556508641689,14.9223106563091,0.));
#342=CARTESIAN_POINT('',(-1.5455650864169,14.9223106563091,0.));
#343=CARTESIAN_POINT('',(-1.5455650864169,14.0723106563091,0.));
#344=CARTESIAN_POINT('',(-0.295565086416897,14.0723106563091,0.));
#345=CARTESIAN_POINT('',(-1.5455650864169,14.9223106563091,0.));
#346=CARTESIAN_POINT('',(-1.5455650864169,2.92231065630913,0.));
#347=CARTESIAN_POINT('',(-0.2955650864169,2.92231065630913,0.));
#348=CARTESIAN_POINT('',(-1.5455650864169,-11.8776893436909,0.));
#349=CARTESIAN_POINT('',(-1.5455650864169,2.8344426906651,0.));
#350=CARTESIAN_POINT('',(-1.5455650864169,-2.92768934369087,0.));
#351=CARTESIAN_POINT('',(0.3044349135831,-2.92768934369087,0.));
#352=CARTESIAN_POINT('',(-1.5455650864169,-0.677689343690868,0.));
#353=CARTESIAN_POINT('',(-2.55258328900692,-0.677689343690868,-1.55190667878335));
#354=CARTESIAN_POINT('',(-1.5455650864169,-11.8776893436909,0.));
#355=CARTESIAN_POINT('',(-1.5455650864169,-2.92768934369087,0.));
#356=CARTESIAN_POINT('',(0.5044349135831,-2.92768934369087,0.));
#357=CARTESIAN_POINT('',(0.3044349135831,-2.92768934369087,0.));
#358=CARTESIAN_POINT('',(-1.5455650864169,-11.8776893436909,0.));
#359=CARTESIAN_POINT('',(-1.5455650864169,0.272310656309134,5.85482703093719E-33));
#360=CARTESIAN_POINT('',(-2.53196666035962,0.272310656309134,-1.71103387895252));
#361=CARTESIAN_POINT('',(-1.5455650864169,1.57231065630913,5.85482703093719E-33));
#362=CARTESIAN_POINT('',(-1.5455650864169,-0.677689343690865,5.85482703093719E-33));
#363=CARTESIAN_POINT('',(-2.52575968954433,-0.677689343690865,-1.77196036637388));
#364=CARTESIAN_POINT('',(-1.5455650864169,-0.677689343690865,2.025));
#365=CARTESIAN_POINT('',(-1.5455650864169,0.272310656309134,5.85482703093719E-33));
#366=MECHANICAL_DESIGN_GEOMETRIC_PRESENTATION_REPRESENTATION('',(#28,#23,
#24,#25),#367);
#367=(
GEOMETRIC_REPRESENTATION_CONTEXT(3)
GLOBAL_UNCERTAINTY_ASSIGNED_CONTEXT((#368))
GLOBAL_UNIT_ASSIGNED_CONTEXT((#374,#370,#369))
REPRESENTATION_CONTEXT('n 01 025 0033','TOP_LEVEL_ASSEMBLY_PART')
);
#368=UNCERTAINTY_MEASURE_WITH_UNIT(LENGTH_MEASURE(2.E-5),#374,
'DISTANCE_ACCURACY_VALUE','Maximum Tolerance applied to model');
#369=(
NAMED_UNIT(*)
SI_UNIT($,.STERADIAN.)
SOLID_ANGLE_UNIT()
);
#370=(
CONVERSION_BASED_UNIT('DEGREE',#372)
NAMED_UNIT(#371)
PLANE_ANGLE_UNIT()
);
#371=DIMENSIONAL_EXPONENTS(0.,0.,0.,0.,0.,0.,0.);
#372=PLANE_ANGLE_MEASURE_WITH_UNIT(PLANE_ANGLE_MEASURE(0.0174532925),#373);
#373=(
NAMED_UNIT(*)
PLANE_ANGLE_UNIT()
SI_UNIT($,.RADIAN.)
);
#374=(
LENGTH_UNIT()
NAMED_UNIT(*)
SI_UNIT(.MILLI.,.METRE.)
);
ENDSEC;
END-ISO-10303-21;
