ISO-10303-21;
HEADER;
/* Generated by software containing ST-Developer
 * from STEP Tools, Inc. (www.steptools.com) 
 */
/* OPTION: using custom schema-name function */

FILE_DESCRIPTION(
/* description */ (''),
/* implementation_level */ '2;1');

FILE_NAME(
/* name */ 'C3D_VN17_045_0001_X_Rev01.stp',
/* time_stamp */ '2016-07-14T10:14:56+02:00',
/* author */ (''),
/* organization */ (''),
/* preprocessor_version */ 'ST-DEVELOPER v15',
/* originating_system */ 'SIEMENS PLM Software NX 9.0',
/* authorisation */ '');

FILE_SCHEMA (('CONFIG_CONTROL_DESIGN'));
ENDSEC;

DATA;
#10=SHAPE_REPRESENTATION_RELATIONSHIP('None',
'relationship between n 17 045 0001nxm001-01-None and n 17 045 0001nxm
001-01-None',#92,#11);
#11=ADVANCED_BREP_SHAPE_REPRESENTATION('n 17 045 0001nxm001-01-None',(#93),
#265);
#12=CC_DESIGN_APPROVAL(#24,(#82));
#13=CC_DESIGN_APPROVAL(#25,(#84));
#14=CC_DESIGN_APPROVAL(#26,(#31));
#15=APPROVAL_PERSON_ORGANIZATION(#69,#24,#18);
#16=APPROVAL_PERSON_ORGANIZATION(#70,#25,#19);
#17=APPROVAL_PERSON_ORGANIZATION(#71,#26,#20);
#18=APPROVAL_ROLE('approver');
#19=APPROVAL_ROLE('approver');
#20=APPROVAL_ROLE('approver');
#21=APPROVAL_DATE_TIME(#39,#24);
#22=APPROVAL_DATE_TIME(#40,#25);
#23=APPROVAL_DATE_TIME(#41,#26);
#24=APPROVAL(#27,' ');
#25=APPROVAL(#28,' ');
#26=APPROVAL(#29,' ');
#27=APPROVAL_STATUS('not_yet_approved');
#28=APPROVAL_STATUS('not_yet_approved');
#29=APPROVAL_STATUS('not_yet_approved');
#30=CC_DESIGN_SECURITY_CLASSIFICATION(#31,(#84));
#31=SECURITY_CLASSIFICATION(' ',' ',#32);
#32=SECURITY_CLASSIFICATION_LEVEL('confidential');
#33=CC_DESIGN_DATE_AND_TIME_ASSIGNMENT(#37,#35,(#82));
#34=CC_DESIGN_DATE_AND_TIME_ASSIGNMENT(#38,#36,(#31));
#35=DATE_TIME_ROLE('creation_date');
#36=DATE_TIME_ROLE('classification_date');
#37=DATE_AND_TIME(#52,#42);
#38=DATE_AND_TIME(#53,#43);
#39=DATE_AND_TIME(#54,#44);
#40=DATE_AND_TIME(#55,#45);
#41=DATE_AND_TIME(#56,#46);
#42=LOCAL_TIME(0,0,0.,#47);
#43=LOCAL_TIME(0,0,0.,#48);
#44=LOCAL_TIME(0,0,0.,#49);
#45=LOCAL_TIME(0,0,0.,#50);
#46=LOCAL_TIME(0,0,0.,#51);
#47=COORDINATED_UNIVERSAL_TIME_OFFSET(0,0,.BEHIND.);
#48=COORDINATED_UNIVERSAL_TIME_OFFSET(0,0,.BEHIND.);
#49=COORDINATED_UNIVERSAL_TIME_OFFSET(0,0,.BEHIND.);
#50=COORDINATED_UNIVERSAL_TIME_OFFSET(0,0,.BEHIND.);
#51=COORDINATED_UNIVERSAL_TIME_OFFSET(0,0,.BEHIND.);
#52=CALENDAR_DATE(0,1,1);
#53=CALENDAR_DATE(0,1,1);
#54=CALENDAR_DATE(0,1,1);
#55=CALENDAR_DATE(0,1,1);
#56=CALENDAR_DATE(0,1,1);
#57=CC_DESIGN_PERSON_AND_ORGANIZATION_ASSIGNMENT(#65,#61,(#82,#84));
#58=CC_DESIGN_PERSON_AND_ORGANIZATION_ASSIGNMENT(#66,#62,(#86));
#59=CC_DESIGN_PERSON_AND_ORGANIZATION_ASSIGNMENT(#67,#63,(#84));
#60=CC_DESIGN_PERSON_AND_ORGANIZATION_ASSIGNMENT(#68,#64,(#31));
#61=PERSON_AND_ORGANIZATION_ROLE('creator');
#62=PERSON_AND_ORGANIZATION_ROLE('design_owner');
#63=PERSON_AND_ORGANIZATION_ROLE('design_supplier');
#64=PERSON_AND_ORGANIZATION_ROLE('classification_officer');
#65=PERSON_AND_ORGANIZATION(#79,#72);
#66=PERSON_AND_ORGANIZATION(#79,#73);
#67=PERSON_AND_ORGANIZATION(#79,#74);
#68=PERSON_AND_ORGANIZATION(#79,#75);
#69=PERSON_AND_ORGANIZATION(#79,#76);
#70=PERSON_AND_ORGANIZATION(#79,#77);
#71=PERSON_AND_ORGANIZATION(#79,#78);
#72=ORGANIZATION(' ',' ',' ');
#73=ORGANIZATION(' ',' ',' ');
#74=ORGANIZATION(' ',' ',' ');
#75=ORGANIZATION(' ',' ',' ');
#76=ORGANIZATION(' ',' ',' ');
#77=ORGANIZATION(' ',' ',' ');
#78=ORGANIZATION(' ',' ',' ');
#79=PERSON(' ',' ',' ',(' '),$,$);
#80=SHAPE_DEFINITION_REPRESENTATION(#81,#92);
#81=PRODUCT_DEFINITION_SHAPE('','',#82);
#82=PRODUCT_DEFINITION(' ','',#84,#83);
#83=DESIGN_CONTEXT('',#91,'design');
#84=PRODUCT_DEFINITION_FORMATION_WITH_SPECIFIED_SOURCE(' ',' ',#86,
 .NOT_KNOWN.);
#85=PRODUCT_RELATED_PRODUCT_CATEGORY('detail','',(#86));
#86=PRODUCT('n 17 045 0001nxm001-01','n 17 045 0001nxm001-01',' ',(#89));
#87=PRODUCT_CATEGORY('part',' ');
#88=PRODUCT_CATEGORY(' ','');
#89=MECHANICAL_CONTEXT(' ',#91,'mechanical');
#90=APPLICATION_PROTOCOL_DEFINITION('international standard',
'config_control_design',2010,#91);
#91=APPLICATION_CONTEXT(
'configuration controlled 3D designs of mechanical parts and assemblie
s');
#92=SHAPE_REPRESENTATION('n 17 045 0001nxm001-01-None',(#185),#265);
#93=MANIFOLD_SOLID_BREP('',#94);
#94=CLOSED_SHELL('',(#113,#114,#115,#116,#117,#118,#119,#120,#121));
#95=CYLINDRICAL_SURFACE('',#193,1.275);
#96=CYLINDRICAL_SURFACE('',#195,2.225);
#97=CYLINDRICAL_SURFACE('',#199,1.45);
#98=CYLINDRICAL_SURFACE('',#202,2.225);
#99=FACE_BOUND('',#130,.T.);
#100=FACE_BOUND('',#131,.T.);
#101=FACE_BOUND('',#133,.T.);
#102=FACE_BOUND('',#134,.T.);
#103=FACE_BOUND('',#135,.T.);
#104=FACE_BOUND('',#136,.T.);
#105=FACE_BOUND('',#137,.T.);
#106=FACE_BOUND('',#138,.T.);
#107=FACE_BOUND('',#139,.T.);
#108=FACE_BOUND('',#140,.T.);
#109=FACE_BOUND('',#141,.T.);
#110=FACE_BOUND('',#142,.T.);
#111=FACE_BOUND('',#143,.T.);
#112=FACE_BOUND('',#144,.T.);
#113=ADVANCED_FACE('',(#127),#122,.F.);
#114=ADVANCED_FACE('',(#99,#100),#123,.F.);
#115=ADVANCED_FACE('',(#128),#124,.F.);
#116=ADVANCED_FACE('',(#101,#102),#95,.T.);
#117=ADVANCED_FACE('',(#103,#104),#96,.T.);
#118=ADVANCED_FACE('',(#105,#106),#125,.F.);
#119=ADVANCED_FACE('',(#107,#108),#97,.T.);
#120=ADVANCED_FACE('',(#109,#110),#126,.F.);
#121=ADVANCED_FACE('',(#111,#112),#98,.T.);
#122=PLANE('',#187);
#123=PLANE('',#190);
#124=PLANE('',#192);
#125=PLANE('',#197);
#126=PLANE('',#201);
#127=FACE_OUTER_BOUND('',#129,.T.);
#128=FACE_OUTER_BOUND('',#132,.T.);
#129=EDGE_LOOP('',(#145));
#130=EDGE_LOOP('',(#146));
#131=EDGE_LOOP('',(#147));
#132=EDGE_LOOP('',(#148));
#133=EDGE_LOOP('',(#149));
#134=EDGE_LOOP('',(#150));
#135=EDGE_LOOP('',(#151));
#136=EDGE_LOOP('',(#152));
#137=EDGE_LOOP('',(#153));
#138=EDGE_LOOP('',(#154));
#139=EDGE_LOOP('',(#155));
#140=EDGE_LOOP('',(#156));
#141=EDGE_LOOP('',(#157));
#142=EDGE_LOOP('',(#158));
#143=EDGE_LOOP('',(#159));
#144=EDGE_LOOP('',(#160));
#145=ORIENTED_EDGE('',*,*,#169,.T.);
#146=ORIENTED_EDGE('',*,*,#170,.T.);
#147=ORIENTED_EDGE('',*,*,#171,.T.);
#148=ORIENTED_EDGE('',*,*,#172,.T.);
#149=ORIENTED_EDGE('',*,*,#172,.F.);
#150=ORIENTED_EDGE('',*,*,#170,.F.);
#151=ORIENTED_EDGE('',*,*,#171,.F.);
#152=ORIENTED_EDGE('',*,*,#173,.F.);
#153=ORIENTED_EDGE('',*,*,#174,.F.);
#154=ORIENTED_EDGE('',*,*,#173,.T.);
#155=ORIENTED_EDGE('',*,*,#175,.F.);
#156=ORIENTED_EDGE('',*,*,#174,.T.);
#157=ORIENTED_EDGE('',*,*,#176,.F.);
#158=ORIENTED_EDGE('',*,*,#175,.T.);
#159=ORIENTED_EDGE('',*,*,#169,.F.);
#160=ORIENTED_EDGE('',*,*,#176,.T.);
#161=VERTEX_POINT('',#241);
#162=VERTEX_POINT('',#244);
#163=VERTEX_POINT('',#246);
#164=VERTEX_POINT('',#249);
#165=VERTEX_POINT('',#253);
#166=VERTEX_POINT('',#256);
#167=VERTEX_POINT('',#259);
#168=VERTEX_POINT('',#262);
#169=EDGE_CURVE('',#161,#161,#177,.T.);
#170=EDGE_CURVE('',#162,#162,#178,.T.);
#171=EDGE_CURVE('',#163,#163,#179,.T.);
#172=EDGE_CURVE('',#164,#164,#180,.T.);
#173=EDGE_CURVE('',#165,#165,#181,.T.);
#174=EDGE_CURVE('',#166,#166,#182,.T.);
#175=EDGE_CURVE('',#167,#167,#183,.T.);
#176=EDGE_CURVE('',#168,#168,#184,.T.);
#177=CIRCLE('',#186,2.225);
#178=CIRCLE('',#188,1.275);
#179=CIRCLE('',#189,2.225);
#180=CIRCLE('',#191,1.275);
#181=CIRCLE('',#194,2.225);
#182=CIRCLE('',#196,1.45);
#183=CIRCLE('',#198,1.45);
#184=CIRCLE('',#200,2.225);
#185=AXIS2_PLACEMENT_3D('',#239,#203,#204);
#186=AXIS2_PLACEMENT_3D('',#240,#205,#206);
#187=AXIS2_PLACEMENT_3D('',#242,#207,#208);
#188=AXIS2_PLACEMENT_3D('',#243,#209,#210);
#189=AXIS2_PLACEMENT_3D('',#245,#211,#212);
#190=AXIS2_PLACEMENT_3D('',#247,#213,#214);
#191=AXIS2_PLACEMENT_3D('',#248,#215,#216);
#192=AXIS2_PLACEMENT_3D('',#250,#217,#218);
#193=AXIS2_PLACEMENT_3D('',#251,#219,#220);
#194=AXIS2_PLACEMENT_3D('',#252,#221,#222);
#195=AXIS2_PLACEMENT_3D('',#254,#223,#224);
#196=AXIS2_PLACEMENT_3D('',#255,#225,#226);
#197=AXIS2_PLACEMENT_3D('',#257,#227,#228);
#198=AXIS2_PLACEMENT_3D('',#258,#229,#230);
#199=AXIS2_PLACEMENT_3D('',#260,#231,#232);
#200=AXIS2_PLACEMENT_3D('',#261,#233,#234);
#201=AXIS2_PLACEMENT_3D('',#263,#235,#236);
#202=AXIS2_PLACEMENT_3D('',#264,#237,#238);
#203=DIRECTION('',(0.,0.,1.));
#204=DIRECTION('',(1.,0.,0.));
#205=DIRECTION('',(8.47937639226786E-017,0.,1.));
#206=DIRECTION('',(-1.,0.,8.47937639226786E-017));
#207=DIRECTION('',(-8.47937639226786E-017,0.,-1.));
#208=DIRECTION('',(-1.,0.,8.47937639226786E-017));
#209=DIRECTION('',(8.47937639226786E-017,0.,1.));
#210=DIRECTION('',(1.,0.,0.));
#211=DIRECTION('',(-8.47937639226786E-017,0.,-1.));
#212=DIRECTION('',(1.,0.,0.));
#213=DIRECTION('',(8.47937639226786E-017,0.,1.));
#214=DIRECTION('',(1.,0.,-8.32667268468867E-017));
#215=DIRECTION('',(-8.47937639226786E-017,0.,-1.));
#216=DIRECTION('',(1.,0.,0.));
#217=DIRECTION('',(8.47937639226786E-017,0.,1.));
#218=DIRECTION('',(1.,0.,-8.32667268468867E-017));
#219=DIRECTION('',(8.47937639226786E-017,0.,1.));
#220=DIRECTION('',(1.,0.,0.));
#221=DIRECTION('',(8.47937639226786E-017,0.,1.));
#222=DIRECTION('',(1.,0.,0.));
#223=DIRECTION('',(8.47937639226786E-017,0.,1.));
#224=DIRECTION('',(1.,0.,0.));
#225=DIRECTION('',(8.47937639226786E-017,0.,1.));
#226=DIRECTION('',(1.,0.,0.));
#227=DIRECTION('',(-8.47937639226786E-017,0.,-1.));
#228=DIRECTION('',(-1.,0.,8.50014503228635E-017));
#229=DIRECTION('',(8.47937639226786E-017,0.,1.));
#230=DIRECTION('',(1.,0.,0.));
#231=DIRECTION('',(8.47937639226786E-017,0.,1.));
#232=DIRECTION('',(1.,0.,0.));
#233=DIRECTION('',(8.47937639226786E-017,0.,1.));
#234=DIRECTION('',(1.,0.,0.));
#235=DIRECTION('',(8.47937639226786E-017,0.,1.));
#236=DIRECTION('',(1.,0.,-8.50014503228635E-017));
#237=DIRECTION('',(8.47937639226786E-017,0.,1.));
#238=DIRECTION('',(1.,0.,0.));
#239=CARTESIAN_POINT('',(0.,0.,0.));
#240=CARTESIAN_POINT('',(2.02657095775202E-015,0.,0.));
#241=CARTESIAN_POINT('',(-2.225,0.,1.8866612472796E-016));
#242=CARTESIAN_POINT('',(1.725,0.,-7.31346213833102E-017));
#243=CARTESIAN_POINT('',(1.69587527845357E-016,0.,-21.9));
#244=CARTESIAN_POINT('',(1.275,0.,-21.9));
#245=CARTESIAN_POINT('',(1.69587527845357E-016,0.,-21.9));
#246=CARTESIAN_POINT('',(2.225,0.,-21.9));
#247=CARTESIAN_POINT('',(1.275,0.,-21.9));
#248=CARTESIAN_POINT('',(2.77865177167188E-065,0.,-23.9));
#249=CARTESIAN_POINT('',(1.275,0.,-23.9));
#250=CARTESIAN_POINT('',(3.86461554009404E-033,0.,-23.9));
#251=CARTESIAN_POINT('',(0.,0.,-23.9));
#252=CARTESIAN_POINT('',(1.43301461029327E-015,0.,-7.));
#253=CARTESIAN_POINT('',(2.225,0.,-7.));
#254=CARTESIAN_POINT('',(0.,0.,-23.9));
#255=CARTESIAN_POINT('',(1.43301461029327E-015,0.,-7.));
#256=CARTESIAN_POINT('',(1.45,0.,-7.));
#257=CARTESIAN_POINT('',(2.225,0.,-7.));
#258=CARTESIAN_POINT('',(1.76371028959171E-015,0.,-3.1));
#259=CARTESIAN_POINT('',(1.45,0.,-3.1));
#260=CARTESIAN_POINT('',(0.,0.,-23.9));
#261=CARTESIAN_POINT('',(1.76371028959171E-015,0.,-3.1));
#262=CARTESIAN_POINT('',(2.225,0.,-3.1));
#263=CARTESIAN_POINT('',(1.45,0.,-3.1));
#264=CARTESIAN_POINT('',(0.,0.,-23.9));
#265=(
GEOMETRIC_REPRESENTATION_CONTEXT(3)
GLOBAL_UNCERTAINTY_ASSIGNED_CONTEXT((#266))
GLOBAL_UNIT_ASSIGNED_CONTEXT((#272,#268,#267))
REPRESENTATION_CONTEXT('C3D_VN17_045_0001_X_Rev01',
'TOP_LEVEL_ASSEMBLY_PART')
);
#266=UNCERTAINTY_MEASURE_WITH_UNIT(LENGTH_MEASURE(2.E-005),#272,
'DISTANCE_ACCURACY_VALUE','Maximum Tolerance applied to model');
#267=(
NAMED_UNIT(*)
SI_UNIT($,.STERADIAN.)
SOLID_ANGLE_UNIT()
);
#268=(
CONVERSION_BASED_UNIT('DEGREE',#270)
NAMED_UNIT(#269)
PLANE_ANGLE_UNIT()
);
#269=DIMENSIONAL_EXPONENTS(0.,0.,0.,0.,0.,0.,0.);
#270=PLANE_ANGLE_MEASURE_WITH_UNIT(PLANE_ANGLE_MEASURE(0.0174532925),#271);
#271=(
NAMED_UNIT(*)
PLANE_ANGLE_UNIT()
SI_UNIT($,.RADIAN.)
);
#272=(
LENGTH_UNIT()
NAMED_UNIT(*)
SI_UNIT(.MILLI.,.METRE.)
);
ENDSEC;
END-ISO-10303-21;
