ISO-10303-21;
HEADER;
/* Generated by software containing ST-Developer
 * from STEP Tools, Inc. (www.steptools.com) 
 */
/* OPTION: using custom schema-name function */

FILE_DESCRIPTION(
/* description */ (''),
/* implementation_level */ '2;1');

FILE_NAME(
/* name */ 'tb 0000 146 0007nxc001-01_214.stp',
/* time_stamp */ '2023-01-27T09:00:31+01:00',
/* author */ (''),
/* organization */ (''),
/* preprocessor_version */ 'ST-DEVELOPER v18.1',
/* originating_system */ 'SIEMENS PLM Software NX 2000',
/* authorisation */ '');

FILE_SCHEMA (('AUTOMOTIVE_DESIGN { 1 0 10303 214 3 1 1 1 }'));
ENDSEC;

DATA;
#10=SHAPE_REPRESENTATION_RELATIONSHIP('None',
'relationship between tb 0000 146 0007nxc001-01-None and tb 0000 146 0
007nxc001-01-None',#36,#11);
#11=ADVANCED_BREP_SHAPE_REPRESENTATION('tb 0000 146 0007nxc001-01-None',
(#46),#483);
#12=CONTEXT_DEPENDENT_SHAPE_REPRESENTATION(#14,#20);
#13=NEXT_ASSEMBLY_USAGE_OCCURRENCE('1001',' ',
'TB 0000 146 0007NXM001-04',#22,#21,$);
#14=(
REPRESENTATION_RELATIONSHIP(' ',' ',#35,#36)
REPRESENTATION_RELATIONSHIP_WITH_TRANSFORMATION(#15)
SHAPE_REPRESENTATION_RELATIONSHIP()
);
#15=ITEM_DEFINED_TRANSFORMATION(' ',' ',#281,#325);
#16=SHAPE_DEFINITION_REPRESENTATION(#18,#35);
#17=SHAPE_DEFINITION_REPRESENTATION(#19,#36);
#18=PRODUCT_DEFINITION_SHAPE('','',#21);
#19=PRODUCT_DEFINITION_SHAPE('','',#22);
#20=PRODUCT_DEFINITION_SHAPE(' ','NAUO PRDDFN',#13);
#21=PRODUCT_DEFINITION(' ','',#25,#23);
#22=PRODUCT_DEFINITION(' ','',#26,#24);
#23=PRODUCT_DEFINITION_CONTEXT('part definition',#34,'design');
#24=PRODUCT_DEFINITION_CONTEXT('part definition',#34,'design');
#25=PRODUCT_DEFINITION_FORMATION_WITH_SPECIFIED_SOURCE(' ',' ',#29,
 .NOT_KNOWN.);
#26=PRODUCT_DEFINITION_FORMATION_WITH_SPECIFIED_SOURCE(' ',' ',#30,
 .NOT_KNOWN.);
#27=PRODUCT_RELATED_PRODUCT_CATEGORY('part','',(#29));
#28=PRODUCT_RELATED_PRODUCT_CATEGORY('part','',(#30));
#29=PRODUCT('tb 0000 146 0007nxm001-04_33215ID',
'tb 0000 146 0007nxm001-04_33215ID',' ',(#31));
#30=PRODUCT('tb 0000 146 0007nxc001-01','tb 0000 146 0007nxc001-01',' ',
(#32));
#31=PRODUCT_CONTEXT(' ',#34,'mechanical');
#32=PRODUCT_CONTEXT(' ',#34,'mechanical');
#33=APPLICATION_PROTOCOL_DEFINITION('international standard',
'automotive_design',2010,#34);
#34=APPLICATION_CONTEXT(
'core data for automotive mechanical design processes');
#35=SHAPE_REPRESENTATION(
'tb 0000 146 0007nxm001-04_33215ID-None_PROM_0001',(#281),#484);
#36=SHAPE_REPRESENTATION('tb 0000 146 0007nxc001-01-None',(#281,#325),#483);
#37=PRESENTATION_LAYER_ASSIGNMENT('1','Layer 1',(#46));
#38=STYLED_ITEM('',(#39),#46);
#39=PRESENTATION_STYLE_ASSIGNMENT((#40));
#40=SURFACE_STYLE_USAGE(.BOTH.,#41);
#41=SURFACE_SIDE_STYLE('',(#42));
#42=SURFACE_STYLE_FILL_AREA(#43);
#43=FILL_AREA_STYLE('',(#44));
#44=FILL_AREA_STYLE_COLOUR('',#45);
#45=COLOUR_RGB('medium weak blue',0.4,0.4,0.6);
#46=MANIFOLD_SOLID_BREP('',#47);
#47=CLOSED_SHELL('',(#101,#102,#103,#104,#105,#106,#107,#108,#109,#110,
#111,#112,#113,#114,#115,#116,#117,#118,#119,#120,#121,#122));
#48=CONICAL_SURFACE('',#323,4.,45.);
#49=CYLINDRICAL_SURFACE('',#287,6.3);
#50=CYLINDRICAL_SURFACE('',#293,4.5);
#51=CYLINDRICAL_SURFACE('',#299,6.3);
#52=CYLINDRICAL_SURFACE('',#305,4.5);
#53=CYLINDRICAL_SURFACE('',#309,4.3);
#54=CYLINDRICAL_SURFACE('',#313,4.5);
#55=CYLINDRICAL_SURFACE('',#317,4.3);
#56=CYLINDRICAL_SURFACE('',#321,4.5);
#57=TOROIDAL_SURFACE('',#285,6.,0.300000000000001);
#58=TOROIDAL_SURFACE('',#289,6.,0.3);
#59=TOROIDAL_SURFACE('',#297,6.,0.300000000000001);
#60=TOROIDAL_SURFACE('',#301,6.,0.3);
#61=FACE_BOUND('',#135,.T.);
#62=FACE_BOUND('',#136,.T.);
#63=FACE_BOUND('',#137,.T.);
#64=FACE_BOUND('',#138,.T.);
#65=FACE_BOUND('',#139,.T.);
#66=FACE_BOUND('',#140,.T.);
#67=FACE_BOUND('',#141,.T.);
#68=FACE_BOUND('',#142,.T.);
#69=FACE_BOUND('',#143,.T.);
#70=FACE_BOUND('',#144,.T.);
#71=FACE_BOUND('',#145,.T.);
#72=FACE_BOUND('',#146,.T.);
#73=FACE_BOUND('',#147,.T.);
#74=FACE_BOUND('',#148,.T.);
#75=FACE_BOUND('',#149,.T.);
#76=FACE_BOUND('',#150,.T.);
#77=FACE_BOUND('',#151,.T.);
#78=FACE_BOUND('',#152,.T.);
#79=FACE_BOUND('',#153,.T.);
#80=FACE_BOUND('',#154,.T.);
#81=FACE_BOUND('',#155,.T.);
#82=FACE_BOUND('',#156,.T.);
#83=FACE_BOUND('',#157,.T.);
#84=FACE_BOUND('',#158,.T.);
#85=FACE_BOUND('',#159,.T.);
#86=FACE_BOUND('',#160,.T.);
#87=FACE_BOUND('',#161,.T.);
#88=FACE_BOUND('',#162,.T.);
#89=FACE_BOUND('',#163,.T.);
#90=FACE_BOUND('',#164,.T.);
#91=FACE_BOUND('',#165,.T.);
#92=FACE_BOUND('',#166,.T.);
#93=FACE_BOUND('',#167,.T.);
#94=FACE_BOUND('',#168,.T.);
#95=FACE_BOUND('',#169,.T.);
#96=FACE_BOUND('',#170,.T.);
#97=FACE_BOUND('',#171,.T.);
#98=FACE_BOUND('',#172,.T.);
#99=FACE_BOUND('',#173,.T.);
#100=FACE_BOUND('',#174,.T.);
#101=ADVANCED_FACE('',(#132),#123,.T.);
#102=ADVANCED_FACE('',(#61,#62),#57,.T.);
#103=ADVANCED_FACE('',(#63,#64),#49,.T.);
#104=ADVANCED_FACE('',(#65,#66),#58,.T.);
#105=ADVANCED_FACE('',(#67,#68),#124,.T.);
#106=ADVANCED_FACE('',(#69,#70),#50,.T.);
#107=ADVANCED_FACE('',(#71,#72),#125,.T.);
#108=ADVANCED_FACE('',(#73,#74),#59,.T.);
#109=ADVANCED_FACE('',(#75,#76),#51,.T.);
#110=ADVANCED_FACE('',(#77,#78),#60,.T.);
#111=ADVANCED_FACE('',(#79,#80),#126,.T.);
#112=ADVANCED_FACE('',(#81,#82),#52,.T.);
#113=ADVANCED_FACE('',(#83,#84),#127,.T.);
#114=ADVANCED_FACE('',(#85,#86),#53,.T.);
#115=ADVANCED_FACE('',(#87,#88),#128,.T.);
#116=ADVANCED_FACE('',(#89,#90),#54,.T.);
#117=ADVANCED_FACE('',(#91,#92),#129,.T.);
#118=ADVANCED_FACE('',(#93,#94),#55,.T.);
#119=ADVANCED_FACE('',(#95,#96),#130,.T.);
#120=ADVANCED_FACE('',(#97,#98),#56,.T.);
#121=ADVANCED_FACE('',(#99,#100),#48,.T.);
#122=ADVANCED_FACE('',(#133),#131,.T.);
#123=PLANE('',#283);
#124=PLANE('',#291);
#125=PLANE('',#295);
#126=PLANE('',#303);
#127=PLANE('',#307);
#128=PLANE('',#311);
#129=PLANE('',#315);
#130=PLANE('',#319);
#131=PLANE('',#324);
#132=FACE_OUTER_BOUND('',#134,.T.);
#133=FACE_OUTER_BOUND('',#175,.T.);
#134=EDGE_LOOP('',(#176));
#135=EDGE_LOOP('',(#177));
#136=EDGE_LOOP('',(#178));
#137=EDGE_LOOP('',(#179));
#138=EDGE_LOOP('',(#180));
#139=EDGE_LOOP('',(#181));
#140=EDGE_LOOP('',(#182));
#141=EDGE_LOOP('',(#183));
#142=EDGE_LOOP('',(#184));
#143=EDGE_LOOP('',(#185));
#144=EDGE_LOOP('',(#186));
#145=EDGE_LOOP('',(#187));
#146=EDGE_LOOP('',(#188));
#147=EDGE_LOOP('',(#189));
#148=EDGE_LOOP('',(#190));
#149=EDGE_LOOP('',(#191));
#150=EDGE_LOOP('',(#192));
#151=EDGE_LOOP('',(#193));
#152=EDGE_LOOP('',(#194));
#153=EDGE_LOOP('',(#195));
#154=EDGE_LOOP('',(#196));
#155=EDGE_LOOP('',(#197));
#156=EDGE_LOOP('',(#198));
#157=EDGE_LOOP('',(#199));
#158=EDGE_LOOP('',(#200));
#159=EDGE_LOOP('',(#201));
#160=EDGE_LOOP('',(#202));
#161=EDGE_LOOP('',(#203));
#162=EDGE_LOOP('',(#204));
#163=EDGE_LOOP('',(#205));
#164=EDGE_LOOP('',(#206));
#165=EDGE_LOOP('',(#207));
#166=EDGE_LOOP('',(#208));
#167=EDGE_LOOP('',(#209));
#168=EDGE_LOOP('',(#210));
#169=EDGE_LOOP('',(#211));
#170=EDGE_LOOP('',(#212));
#171=EDGE_LOOP('',(#213));
#172=EDGE_LOOP('',(#214));
#173=EDGE_LOOP('',(#215));
#174=EDGE_LOOP('',(#216));
#175=EDGE_LOOP('',(#217));
#176=ORIENTED_EDGE('',*,*,#239,.F.);
#177=ORIENTED_EDGE('',*,*,#239,.T.);
#178=ORIENTED_EDGE('',*,*,#240,.F.);
#179=ORIENTED_EDGE('',*,*,#240,.T.);
#180=ORIENTED_EDGE('',*,*,#241,.F.);
#181=ORIENTED_EDGE('',*,*,#241,.T.);
#182=ORIENTED_EDGE('',*,*,#242,.F.);
#183=ORIENTED_EDGE('',*,*,#242,.T.);
#184=ORIENTED_EDGE('',*,*,#243,.F.);
#185=ORIENTED_EDGE('',*,*,#243,.T.);
#186=ORIENTED_EDGE('',*,*,#244,.F.);
#187=ORIENTED_EDGE('',*,*,#244,.T.);
#188=ORIENTED_EDGE('',*,*,#245,.F.);
#189=ORIENTED_EDGE('',*,*,#245,.T.);
#190=ORIENTED_EDGE('',*,*,#246,.F.);
#191=ORIENTED_EDGE('',*,*,#246,.T.);
#192=ORIENTED_EDGE('',*,*,#247,.F.);
#193=ORIENTED_EDGE('',*,*,#247,.T.);
#194=ORIENTED_EDGE('',*,*,#248,.F.);
#195=ORIENTED_EDGE('',*,*,#248,.T.);
#196=ORIENTED_EDGE('',*,*,#249,.F.);
#197=ORIENTED_EDGE('',*,*,#249,.T.);
#198=ORIENTED_EDGE('',*,*,#250,.F.);
#199=ORIENTED_EDGE('',*,*,#250,.T.);
#200=ORIENTED_EDGE('',*,*,#251,.F.);
#201=ORIENTED_EDGE('',*,*,#251,.T.);
#202=ORIENTED_EDGE('',*,*,#252,.F.);
#203=ORIENTED_EDGE('',*,*,#252,.T.);
#204=ORIENTED_EDGE('',*,*,#253,.F.);
#205=ORIENTED_EDGE('',*,*,#253,.T.);
#206=ORIENTED_EDGE('',*,*,#254,.F.);
#207=ORIENTED_EDGE('',*,*,#254,.T.);
#208=ORIENTED_EDGE('',*,*,#255,.F.);
#209=ORIENTED_EDGE('',*,*,#255,.T.);
#210=ORIENTED_EDGE('',*,*,#256,.F.);
#211=ORIENTED_EDGE('',*,*,#256,.T.);
#212=ORIENTED_EDGE('',*,*,#257,.F.);
#213=ORIENTED_EDGE('',*,*,#257,.T.);
#214=ORIENTED_EDGE('',*,*,#258,.F.);
#215=ORIENTED_EDGE('',*,*,#258,.T.);
#216=ORIENTED_EDGE('',*,*,#259,.F.);
#217=ORIENTED_EDGE('',*,*,#259,.T.);
#218=VERTEX_POINT('',#418);
#219=VERTEX_POINT('',#421);
#220=VERTEX_POINT('',#424);
#221=VERTEX_POINT('',#427);
#222=VERTEX_POINT('',#430);
#223=VERTEX_POINT('',#433);
#224=VERTEX_POINT('',#436);
#225=VERTEX_POINT('',#439);
#226=VERTEX_POINT('',#442);
#227=VERTEX_POINT('',#445);
#228=VERTEX_POINT('',#448);
#229=VERTEX_POINT('',#451);
#230=VERTEX_POINT('',#454);
#231=VERTEX_POINT('',#457);
#232=VERTEX_POINT('',#460);
#233=VERTEX_POINT('',#463);
#234=VERTEX_POINT('',#466);
#235=VERTEX_POINT('',#469);
#236=VERTEX_POINT('',#472);
#237=VERTEX_POINT('',#475);
#238=VERTEX_POINT('',#478);
#239=EDGE_CURVE('',#218,#218,#260,.T.);
#240=EDGE_CURVE('',#219,#219,#261,.T.);
#241=EDGE_CURVE('',#220,#220,#262,.T.);
#242=EDGE_CURVE('',#221,#221,#263,.T.);
#243=EDGE_CURVE('',#222,#222,#264,.T.);
#244=EDGE_CURVE('',#223,#223,#265,.T.);
#245=EDGE_CURVE('',#224,#224,#266,.T.);
#246=EDGE_CURVE('',#225,#225,#267,.T.);
#247=EDGE_CURVE('',#226,#226,#268,.T.);
#248=EDGE_CURVE('',#227,#227,#269,.T.);
#249=EDGE_CURVE('',#228,#228,#270,.T.);
#250=EDGE_CURVE('',#229,#229,#271,.T.);
#251=EDGE_CURVE('',#230,#230,#272,.T.);
#252=EDGE_CURVE('',#231,#231,#273,.T.);
#253=EDGE_CURVE('',#232,#232,#274,.T.);
#254=EDGE_CURVE('',#233,#233,#275,.T.);
#255=EDGE_CURVE('',#234,#234,#276,.T.);
#256=EDGE_CURVE('',#235,#235,#277,.T.);
#257=EDGE_CURVE('',#236,#236,#278,.T.);
#258=EDGE_CURVE('',#237,#237,#279,.T.);
#259=EDGE_CURVE('',#238,#238,#280,.T.);
#260=CIRCLE('',#282,6.);
#261=CIRCLE('',#284,6.3);
#262=CIRCLE('',#286,6.3);
#263=CIRCLE('',#288,6.);
#264=CIRCLE('',#290,4.5);
#265=CIRCLE('',#292,4.5);
#266=CIRCLE('',#294,6.);
#267=CIRCLE('',#296,6.3);
#268=CIRCLE('',#298,6.3);
#269=CIRCLE('',#300,6.);
#270=CIRCLE('',#302,4.5);
#271=CIRCLE('',#304,4.5);
#272=CIRCLE('',#306,4.3);
#273=CIRCLE('',#308,4.3);
#274=CIRCLE('',#310,4.5);
#275=CIRCLE('',#312,4.5);
#276=CIRCLE('',#314,4.3);
#277=CIRCLE('',#316,4.3);
#278=CIRCLE('',#318,4.5);
#279=CIRCLE('',#320,4.5);
#280=CIRCLE('',#322,4.);
#281=AXIS2_PLACEMENT_3D('',#416,#326,#327);
#282=AXIS2_PLACEMENT_3D('',#417,#328,#329);
#283=AXIS2_PLACEMENT_3D('',#419,#330,#331);
#284=AXIS2_PLACEMENT_3D('',#420,#332,#333);
#285=AXIS2_PLACEMENT_3D('',#422,#334,#335);
#286=AXIS2_PLACEMENT_3D('',#423,#336,#337);
#287=AXIS2_PLACEMENT_3D('',#425,#338,#339);
#288=AXIS2_PLACEMENT_3D('',#426,#340,#341);
#289=AXIS2_PLACEMENT_3D('',#428,#342,#343);
#290=AXIS2_PLACEMENT_3D('',#429,#344,#345);
#291=AXIS2_PLACEMENT_3D('',#431,#346,#347);
#292=AXIS2_PLACEMENT_3D('',#432,#348,#349);
#293=AXIS2_PLACEMENT_3D('',#434,#350,#351);
#294=AXIS2_PLACEMENT_3D('',#435,#352,#353);
#295=AXIS2_PLACEMENT_3D('',#437,#354,#355);
#296=AXIS2_PLACEMENT_3D('',#438,#356,#357);
#297=AXIS2_PLACEMENT_3D('',#440,#358,#359);
#298=AXIS2_PLACEMENT_3D('',#441,#360,#361);
#299=AXIS2_PLACEMENT_3D('',#443,#362,#363);
#300=AXIS2_PLACEMENT_3D('',#444,#364,#365);
#301=AXIS2_PLACEMENT_3D('',#446,#366,#367);
#302=AXIS2_PLACEMENT_3D('',#447,#368,#369);
#303=AXIS2_PLACEMENT_3D('',#449,#370,#371);
#304=AXIS2_PLACEMENT_3D('',#450,#372,#373);
#305=AXIS2_PLACEMENT_3D('',#452,#374,#375);
#306=AXIS2_PLACEMENT_3D('',#453,#376,#377);
#307=AXIS2_PLACEMENT_3D('',#455,#378,#379);
#308=AXIS2_PLACEMENT_3D('',#456,#380,#381);
#309=AXIS2_PLACEMENT_3D('',#458,#382,#383);
#310=AXIS2_PLACEMENT_3D('',#459,#384,#385);
#311=AXIS2_PLACEMENT_3D('',#461,#386,#387);
#312=AXIS2_PLACEMENT_3D('',#462,#388,#389);
#313=AXIS2_PLACEMENT_3D('',#464,#390,#391);
#314=AXIS2_PLACEMENT_3D('',#465,#392,#393);
#315=AXIS2_PLACEMENT_3D('',#467,#394,#395);
#316=AXIS2_PLACEMENT_3D('',#468,#396,#397);
#317=AXIS2_PLACEMENT_3D('',#470,#398,#399);
#318=AXIS2_PLACEMENT_3D('',#471,#400,#401);
#319=AXIS2_PLACEMENT_3D('',#473,#402,#403);
#320=AXIS2_PLACEMENT_3D('',#474,#404,#405);
#321=AXIS2_PLACEMENT_3D('',#476,#406,#407);
#322=AXIS2_PLACEMENT_3D('',#477,#408,#409);
#323=AXIS2_PLACEMENT_3D('',#479,#410,#411);
#324=AXIS2_PLACEMENT_3D('',#480,#412,#413);
#325=AXIS2_PLACEMENT_3D('',#481,#414,#415);
#326=DIRECTION('',(0.,0.,1.));
#327=DIRECTION('',(1.,0.,0.));
#328=DIRECTION('',(0.,-1.,0.));
#329=DIRECTION('',(0.,0.,-1.));
#330=DIRECTION('',(0.,1.,0.));
#331=DIRECTION('',(0.,0.,1.));
#332=DIRECTION('',(0.,-1.,0.));
#333=DIRECTION('',(0.,0.,-1.));
#334=DIRECTION('',(0.,-1.,0.));
#335=DIRECTION('',(0.,0.,-1.));
#336=DIRECTION('',(0.,-1.,0.));
#337=DIRECTION('',(0.,0.,-1.));
#338=DIRECTION('',(0.,-1.,0.));
#339=DIRECTION('',(0.,0.,-1.));
#340=DIRECTION('',(0.,-1.,0.));
#341=DIRECTION('',(0.,0.,-1.));
#342=DIRECTION('',(0.,-1.,0.));
#343=DIRECTION('',(0.,0.,-1.));
#344=DIRECTION('',(0.,-1.,0.));
#345=DIRECTION('',(0.,0.,-1.));
#346=DIRECTION('',(0.,-1.,0.));
#347=DIRECTION('',(0.,0.,-1.));
#348=DIRECTION('',(0.,-1.,0.));
#349=DIRECTION('',(0.,0.,-1.));
#350=DIRECTION('',(0.,-1.,0.));
#351=DIRECTION('',(0.,0.,-1.));
#352=DIRECTION('',(0.,-1.,0.));
#353=DIRECTION('',(0.,0.,-1.));
#354=DIRECTION('',(0.,1.,0.));
#355=DIRECTION('',(0.,0.,1.));
#356=DIRECTION('',(0.,-1.,0.));
#357=DIRECTION('',(0.,0.,-1.));
#358=DIRECTION('',(0.,-1.,0.));
#359=DIRECTION('',(0.,0.,-1.));
#360=DIRECTION('',(0.,-1.,0.));
#361=DIRECTION('',(0.,0.,-1.));
#362=DIRECTION('',(0.,-1.,0.));
#363=DIRECTION('',(0.,0.,-1.));
#364=DIRECTION('',(0.,-1.,0.));
#365=DIRECTION('',(0.,0.,-1.));
#366=DIRECTION('',(0.,-1.,0.));
#367=DIRECTION('',(0.,0.,-1.));
#368=DIRECTION('',(0.,-1.,0.));
#369=DIRECTION('',(0.,0.,-1.));
#370=DIRECTION('',(0.,-1.,0.));
#371=DIRECTION('',(0.,0.,-1.));
#372=DIRECTION('',(0.,-1.,0.));
#373=DIRECTION('',(0.,0.,-1.));
#374=DIRECTION('',(0.,-1.,0.));
#375=DIRECTION('',(0.,0.,-1.));
#376=DIRECTION('',(0.,-1.,0.));
#377=DIRECTION('',(0.,0.,-1.));
#378=DIRECTION('',(0.,-1.,0.));
#379=DIRECTION('',(0.,0.,-1.));
#380=DIRECTION('',(0.,-1.,0.));
#381=DIRECTION('',(0.,0.,-1.));
#382=DIRECTION('',(0.,-1.,0.));
#383=DIRECTION('',(0.,0.,-1.));
#384=DIRECTION('',(0.,-1.,0.));
#385=DIRECTION('',(0.,0.,-1.));
#386=DIRECTION('',(0.,1.,0.));
#387=DIRECTION('',(0.,0.,1.));
#388=DIRECTION('',(0.,-1.,0.));
#389=DIRECTION('',(0.,0.,-1.));
#390=DIRECTION('',(0.,-1.,0.));
#391=DIRECTION('',(0.,0.,-1.));
#392=DIRECTION('',(0.,-1.,0.));
#393=DIRECTION('',(0.,0.,-1.));
#394=DIRECTION('',(0.,-1.,0.));
#395=DIRECTION('',(0.,0.,-1.));
#396=DIRECTION('',(0.,-1.,0.));
#397=DIRECTION('',(0.,0.,-1.));
#398=DIRECTION('',(0.,-1.,0.));
#399=DIRECTION('',(0.,0.,-1.));
#400=DIRECTION('',(0.,-1.,0.));
#401=DIRECTION('',(0.,0.,-1.));
#402=DIRECTION('',(0.,1.,0.));
#403=DIRECTION('',(0.,0.,1.));
#404=DIRECTION('',(0.,-1.,0.));
#405=DIRECTION('',(0.,0.,-1.));
#406=DIRECTION('',(0.,-1.,0.));
#407=DIRECTION('',(0.,0.,-1.));
#408=DIRECTION('',(0.,-1.,0.));
#409=DIRECTION('',(0.,0.,-1.));
#410=DIRECTION('',(0.,1.,0.));
#411=DIRECTION('',(0.,0.,1.));
#412=DIRECTION('',(0.,-1.,0.));
#413=DIRECTION('',(0.,0.,-1.));
#414=DIRECTION('',(0.,0.,1.));
#415=DIRECTION('',(1.,0.,0.));
#416=CARTESIAN_POINT('',(0.,0.,0.));
#417=CARTESIAN_POINT('',(0.,31.5,0.));
#418=CARTESIAN_POINT('',(0.,31.5,-6.));
#419=CARTESIAN_POINT('',(0.,31.5,6.));
#420=CARTESIAN_POINT('',(0.,31.2,0.));
#421=CARTESIAN_POINT('',(0.,31.2,-6.3));
#422=CARTESIAN_POINT('',(0.,31.2,0.));
#423=CARTESIAN_POINT('',(0.,30.,0.));
#424=CARTESIAN_POINT('',(0.,30.,-6.3));
#425=CARTESIAN_POINT('',(0.,0.,0.));
#426=CARTESIAN_POINT('',(0.,29.7,0.));
#427=CARTESIAN_POINT('',(0.,29.7,-6.));
#428=CARTESIAN_POINT('',(0.,30.,0.));
#429=CARTESIAN_POINT('',(0.,29.7,0.));
#430=CARTESIAN_POINT('',(0.,29.7,-4.5));
#431=CARTESIAN_POINT('',(0.,29.7,4.5));
#432=CARTESIAN_POINT('',(0.,28.1,0.));
#433=CARTESIAN_POINT('',(0.,28.1,-4.5));
#434=CARTESIAN_POINT('',(0.,0.,0.));
#435=CARTESIAN_POINT('',(0.,28.1,0.));
#436=CARTESIAN_POINT('',(0.,28.1,-6.));
#437=CARTESIAN_POINT('',(0.,28.1,6.));
#438=CARTESIAN_POINT('',(0.,27.8,0.));
#439=CARTESIAN_POINT('',(0.,27.8,-6.3));
#440=CARTESIAN_POINT('',(0.,27.8,0.));
#441=CARTESIAN_POINT('',(0.,26.8,0.));
#442=CARTESIAN_POINT('',(0.,26.8,-6.3));
#443=CARTESIAN_POINT('',(0.,0.,0.));
#444=CARTESIAN_POINT('',(0.,26.5,0.));
#445=CARTESIAN_POINT('',(0.,26.5,-6.));
#446=CARTESIAN_POINT('',(0.,26.8,0.));
#447=CARTESIAN_POINT('',(0.,26.5,0.));
#448=CARTESIAN_POINT('',(0.,26.5,-4.5));
#449=CARTESIAN_POINT('',(0.,26.5,4.5));
#450=CARTESIAN_POINT('',(0.,8.,0.));
#451=CARTESIAN_POINT('',(0.,8.,-4.5));
#452=CARTESIAN_POINT('',(0.,0.,0.));
#453=CARTESIAN_POINT('',(0.,8.,0.));
#454=CARTESIAN_POINT('',(0.,8.,-4.3));
#455=CARTESIAN_POINT('',(0.,8.,4.3));
#456=CARTESIAN_POINT('',(0.,6.,0.));
#457=CARTESIAN_POINT('',(0.,6.,-4.3));
#458=CARTESIAN_POINT('',(0.,0.,0.));
#459=CARTESIAN_POINT('',(0.,6.,0.));
#460=CARTESIAN_POINT('',(0.,6.,-4.5));
#461=CARTESIAN_POINT('',(0.,6.,4.5));
#462=CARTESIAN_POINT('',(0.,4.,0.));
#463=CARTESIAN_POINT('',(0.,4.,-4.5));
#464=CARTESIAN_POINT('',(0.,0.,0.));
#465=CARTESIAN_POINT('',(0.,4.,0.));
#466=CARTESIAN_POINT('',(0.,4.,-4.3));
#467=CARTESIAN_POINT('',(0.,4.,4.3));
#468=CARTESIAN_POINT('',(0.,2.,0.));
#469=CARTESIAN_POINT('',(0.,2.,-4.3));
#470=CARTESIAN_POINT('',(0.,0.,0.));
#471=CARTESIAN_POINT('',(0.,2.,0.));
#472=CARTESIAN_POINT('',(0.,2.,-4.5));
#473=CARTESIAN_POINT('',(0.,2.,4.5));
#474=CARTESIAN_POINT('',(0.,0.5,0.));
#475=CARTESIAN_POINT('',(0.,0.5,-4.5));
#476=CARTESIAN_POINT('',(0.,0.,0.));
#477=CARTESIAN_POINT('',(0.,0.,0.));
#478=CARTESIAN_POINT('',(0.,0.,-4.));
#479=CARTESIAN_POINT('',(0.,0.,0.));
#480=CARTESIAN_POINT('',(0.,0.,0.));
#481=CARTESIAN_POINT('',(0.,0.,0.));
#482=MECHANICAL_DESIGN_GEOMETRIC_PRESENTATION_REPRESENTATION('',(#38),#483);
#483=(
GEOMETRIC_REPRESENTATION_CONTEXT(3)
GLOBAL_UNCERTAINTY_ASSIGNED_CONTEXT((#485))
GLOBAL_UNIT_ASSIGNED_CONTEXT((#492,#488,#487))
REPRESENTATION_CONTEXT('tb 0000 146 0007nxc001-01_214',
'TOP_LEVEL_ASSEMBLY_PART')
);
#484=(
GEOMETRIC_REPRESENTATION_CONTEXT(3)
GLOBAL_UNCERTAINTY_ASSIGNED_CONTEXT((#486))
GLOBAL_UNIT_ASSIGNED_CONTEXT((#492,#488,#487))
REPRESENTATION_CONTEXT('tb 0000 146 0007nxm001-04_33215ID',
'COMPONENT_PART')
);
#485=UNCERTAINTY_MEASURE_WITH_UNIT(LENGTH_MEASURE(2.E-5),#492,
'DISTANCE_ACCURACY_VALUE','Maximum Tolerance applied to model');
#486=UNCERTAINTY_MEASURE_WITH_UNIT(LENGTH_MEASURE(2.E-5),#492,
'DISTANCE_ACCURACY_VALUE','Maximum Tolerance applied to model');
#487=(
NAMED_UNIT(*)
SI_UNIT($,.STERADIAN.)
SOLID_ANGLE_UNIT()
);
#488=(
CONVERSION_BASED_UNIT('DEGREE',#490)
NAMED_UNIT(#489)
PLANE_ANGLE_UNIT()
);
#489=DIMENSIONAL_EXPONENTS(0.,0.,0.,0.,0.,0.,0.);
#490=PLANE_ANGLE_MEASURE_WITH_UNIT(PLANE_ANGLE_MEASURE(0.0174532925),#491);
#491=(
NAMED_UNIT(*)
PLANE_ANGLE_UNIT()
SI_UNIT($,.RADIAN.)
);
#492=(
LENGTH_UNIT()
NAMED_UNIT(*)
SI_UNIT(.MILLI.,.METRE.)
);
ENDSEC;
END-ISO-10303-21;
