ISO-10303-21;
HEADER;
/* Generated by software containing ST-Developer
 * from STEP Tools, Inc. (www.steptools.com) 
 */
/* OPTION: using custom schema-name function */

FILE_DESCRIPTION(
/* description */ (''),
/* implementation_level */ '2;1');

FILE_NAME(
/* name */ 'n 02 060 611x 001nxc001-01.stp',
/* time_stamp */ '2021-04-20T13:24:56+02:00',
/* author */ (''),
/* organization */ (''),
/* preprocessor_version */ 'ST-DEVELOPER v16.7',
/* originating_system */ 'SIEMENS PLM Software NX 12.0',
/* authorisation */ '');

FILE_SCHEMA (('AUTOMOTIVE_DESIGN { 1 0 10303 214 3 1 1 1 }'));
ENDSEC;

DATA;
#10=SHAPE_REPRESENTATION_RELATIONSHIP('None',
'relationship between n 02 060 611x 001nxc001-01-None and n 02 060 611
x 001nxc001-01-None',#22,#11);
#11=ADVANCED_BREP_SHAPE_REPRESENTATION(
'n 02 060 611x 001nxc001-01-None',(#89),#386);
#12=SHAPE_DEFINITION_REPRESENTATION(#13,#22);
#13=PRODUCT_DEFINITION_SHAPE('','',#14);
#14=PRODUCT_DEFINITION(' ','',#16,#15);
#15=PRODUCT_DEFINITION_CONTEXT('part definition',#21,'design');
#16=PRODUCT_DEFINITION_FORMATION_WITH_SPECIFIED_SOURCE(' ',' ',#18,
 .NOT_KNOWN.);
#17=PRODUCT_RELATED_PRODUCT_CATEGORY('part','',(#18));
#18=PRODUCT('n 02 060 611x 001nxc001-01','n 02 060 611x 001nxc001-01',
' ',(#19));
#19=PRODUCT_CONTEXT(' ',#21,'mechanical');
#20=APPLICATION_PROTOCOL_DEFINITION('international standard',
'automotive_design',2010,#21);
#21=APPLICATION_CONTEXT(
'core data for automotive mechanical design processes');
#22=SHAPE_REPRESENTATION('n 02 060 611x 001nxc001-01-None',(#250),#386);
#23=OVER_RIDING_STYLED_ITEM('',(#34),#103,#32);
#24=OVER_RIDING_STYLED_ITEM('',(#35),#104,#32);
#25=OVER_RIDING_STYLED_ITEM('',(#36),#105,#32);
#26=OVER_RIDING_STYLED_ITEM('',(#37),#106,#32);
#27=OVER_RIDING_STYLED_ITEM('',(#38),#107,#32);
#28=OVER_RIDING_STYLED_ITEM('',(#39),#108,#32);
#29=OVER_RIDING_STYLED_ITEM('',(#40),#109,#32);
#30=OVER_RIDING_STYLED_ITEM('',(#41),#110,#32);
#31=PRESENTATION_LAYER_ASSIGNMENT('1','Layer 1',(#89));
#32=STYLED_ITEM('',(#33),#89);
#33=PRESENTATION_STYLE_ASSIGNMENT((#42));
#34=PRESENTATION_STYLE_ASSIGNMENT((#43));
#35=PRESENTATION_STYLE_ASSIGNMENT((#44));
#36=PRESENTATION_STYLE_ASSIGNMENT((#45));
#37=PRESENTATION_STYLE_ASSIGNMENT((#46));
#38=PRESENTATION_STYLE_ASSIGNMENT((#47));
#39=PRESENTATION_STYLE_ASSIGNMENT((#48));
#40=PRESENTATION_STYLE_ASSIGNMENT((#49));
#41=PRESENTATION_STYLE_ASSIGNMENT((#50));
#42=SURFACE_STYLE_USAGE(.BOTH.,#51);
#43=SURFACE_STYLE_USAGE(.BOTH.,#52);
#44=SURFACE_STYLE_USAGE(.BOTH.,#53);
#45=SURFACE_STYLE_USAGE(.BOTH.,#54);
#46=SURFACE_STYLE_USAGE(.BOTH.,#55);
#47=SURFACE_STYLE_USAGE(.BOTH.,#56);
#48=SURFACE_STYLE_USAGE(.BOTH.,#57);
#49=SURFACE_STYLE_USAGE(.BOTH.,#58);
#50=SURFACE_STYLE_USAGE(.BOTH.,#59);
#51=SURFACE_SIDE_STYLE('',(#60));
#52=SURFACE_SIDE_STYLE('',(#61));
#53=SURFACE_SIDE_STYLE('',(#62));
#54=SURFACE_SIDE_STYLE('',(#63));
#55=SURFACE_SIDE_STYLE('',(#64));
#56=SURFACE_SIDE_STYLE('',(#65));
#57=SURFACE_SIDE_STYLE('',(#66));
#58=SURFACE_SIDE_STYLE('',(#67));
#59=SURFACE_SIDE_STYLE('',(#68));
#60=SURFACE_STYLE_FILL_AREA(#69);
#61=SURFACE_STYLE_FILL_AREA(#70);
#62=SURFACE_STYLE_FILL_AREA(#71);
#63=SURFACE_STYLE_FILL_AREA(#72);
#64=SURFACE_STYLE_FILL_AREA(#73);
#65=SURFACE_STYLE_FILL_AREA(#74);
#66=SURFACE_STYLE_FILL_AREA(#75);
#67=SURFACE_STYLE_FILL_AREA(#76);
#68=SURFACE_STYLE_FILL_AREA(#77);
#69=FILL_AREA_STYLE('',(#78));
#70=FILL_AREA_STYLE('',(#79));
#71=FILL_AREA_STYLE('',(#80));
#72=FILL_AREA_STYLE('',(#81));
#73=FILL_AREA_STYLE('',(#82));
#74=FILL_AREA_STYLE('',(#83));
#75=FILL_AREA_STYLE('',(#84));
#76=FILL_AREA_STYLE('',(#85));
#77=FILL_AREA_STYLE('',(#86));
#78=FILL_AREA_STYLE_COLOUR('',#87);
#79=FILL_AREA_STYLE_COLOUR('',#88);
#80=FILL_AREA_STYLE_COLOUR('',#88);
#81=FILL_AREA_STYLE_COLOUR('',#88);
#82=FILL_AREA_STYLE_COLOUR('',#88);
#83=FILL_AREA_STYLE_COLOUR('',#88);
#84=FILL_AREA_STYLE_COLOUR('',#88);
#85=FILL_AREA_STYLE_COLOUR('',#88);
#86=FILL_AREA_STYLE_COLOUR('',#88);
#87=COLOUR_RGB('Medium Steel',0.596063172350652,0.666666666666667,0.686259250782025);
#88=COLOUR_RGB('Ash Gray',0.874494544899672,0.874494544899672,0.874494544899672);
#89=MANIFOLD_SOLID_BREP('',#90);
#90=CLOSED_SHELL('',(#101,#102,#103,#104,#105,#106,#107,#108,#109,#110,
#111,#112,#113,#114,#115));
#91=FACE_OUTER_BOUND('',#178,.T.);
#92=PLANE('',#265);
#93=PLANE('',#267);
#94=PLANE('',#269);
#95=PLANE('',#272);
#96=PLANE('',#278);
#97=PLANE('',#279);
#98=CONICAL_SURFACE('',#255,1.,59.);
#99=CONICAL_SURFACE('',#275,6.45,45.);
#100=VERTEX_LOOP('',#210);
#101=ADVANCED_FACE('',(#123,#124),#116,.F.);
#102=ADVANCED_FACE('',(#125,#126),#98,.F.);
#103=ADVANCED_FACE('',(#127,#128),#117,.T.);
#104=ADVANCED_FACE('',(#129,#130),#118,.T.);
#105=ADVANCED_FACE('',(#131,#132),#119,.F.);
#106=ADVANCED_FACE('',(#133,#134),#92,.T.);
#107=ADVANCED_FACE('',(#135,#136),#93,.T.);
#108=ADVANCED_FACE('',(#137,#138),#94,.T.);
#109=ADVANCED_FACE('',(#139,#140),#120,.T.);
#110=ADVANCED_FACE('',(#141,#142),#95,.T.);
#111=ADVANCED_FACE('',(#143,#144),#121,.T.);
#112=ADVANCED_FACE('',(#145,#146),#99,.T.);
#113=ADVANCED_FACE('',(#147,#148),#122,.T.);
#114=ADVANCED_FACE('',(#149,#150),#96,.T.);
#115=ADVANCED_FACE('',(#91),#97,.F.);
#116=CYLINDRICAL_SURFACE('',#253,2.625);
#117=CYLINDRICAL_SURFACE('',#258,5.);
#118=CYLINDRICAL_SURFACE('',#261,5.5);
#119=CYLINDRICAL_SURFACE('',#263,3.5);
#120=CYLINDRICAL_SURFACE('',#271,6.45);
#121=CYLINDRICAL_SURFACE('',#274,6.45);
#122=CYLINDRICAL_SURFACE('',#277,3.9624);
#123=FACE_BOUND('',#151,.T.);
#124=FACE_BOUND('',#152,.T.);
#125=FACE_BOUND('',#153,.T.);
#126=FACE_BOUND('',#100,.T.);
#127=FACE_BOUND('',#154,.T.);
#128=FACE_BOUND('',#155,.T.);
#129=FACE_BOUND('',#156,.T.);
#130=FACE_BOUND('',#157,.T.);
#131=FACE_BOUND('',#158,.T.);
#132=FACE_BOUND('',#159,.T.);
#133=FACE_BOUND('',#160,.T.);
#134=FACE_BOUND('',#161,.T.);
#135=FACE_BOUND('',#162,.T.);
#136=FACE_BOUND('',#163,.T.);
#137=FACE_BOUND('',#164,.T.);
#138=FACE_BOUND('',#165,.T.);
#139=FACE_BOUND('',#166,.T.);
#140=FACE_BOUND('',#167,.T.);
#141=FACE_BOUND('',#168,.T.);
#142=FACE_BOUND('',#169,.T.);
#143=FACE_BOUND('',#170,.T.);
#144=FACE_BOUND('',#171,.T.);
#145=FACE_BOUND('',#172,.T.);
#146=FACE_BOUND('',#173,.T.);
#147=FACE_BOUND('',#174,.T.);
#148=FACE_BOUND('',#175,.T.);
#149=FACE_BOUND('',#176,.T.);
#150=FACE_BOUND('',#177,.T.);
#151=EDGE_LOOP('',(#179));
#152=EDGE_LOOP('',(#180));
#153=EDGE_LOOP('',(#181));
#154=EDGE_LOOP('',(#182));
#155=EDGE_LOOP('',(#183));
#156=EDGE_LOOP('',(#184));
#157=EDGE_LOOP('',(#185));
#158=EDGE_LOOP('',(#186));
#159=EDGE_LOOP('',(#187));
#160=EDGE_LOOP('',(#188));
#161=EDGE_LOOP('',(#189));
#162=EDGE_LOOP('',(#190));
#163=EDGE_LOOP('',(#191));
#164=EDGE_LOOP('',(#192));
#165=EDGE_LOOP('',(#193));
#166=EDGE_LOOP('',(#194));
#167=EDGE_LOOP('',(#195));
#168=EDGE_LOOP('',(#196));
#169=EDGE_LOOP('',(#197));
#170=EDGE_LOOP('',(#198));
#171=EDGE_LOOP('',(#199));
#172=EDGE_LOOP('',(#200));
#173=EDGE_LOOP('',(#201));
#174=EDGE_LOOP('',(#202));
#175=EDGE_LOOP('',(#203));
#176=EDGE_LOOP('',(#204));
#177=EDGE_LOOP('',(#205));
#178=EDGE_LOOP('',(#206));
#179=ORIENTED_EDGE('',*,*,#222,.T.);
#180=ORIENTED_EDGE('',*,*,#223,.T.);
#181=ORIENTED_EDGE('',*,*,#224,.T.);
#182=ORIENTED_EDGE('',*,*,#225,.T.);
#183=ORIENTED_EDGE('',*,*,#226,.T.);
#184=ORIENTED_EDGE('',*,*,#227,.T.);
#185=ORIENTED_EDGE('',*,*,#228,.T.);
#186=ORIENTED_EDGE('',*,*,#224,.F.);
#187=ORIENTED_EDGE('',*,*,#229,.T.);
#188=ORIENTED_EDGE('',*,*,#229,.F.);
#189=ORIENTED_EDGE('',*,*,#230,.F.);
#190=ORIENTED_EDGE('',*,*,#231,.F.);
#191=ORIENTED_EDGE('',*,*,#227,.F.);
#192=ORIENTED_EDGE('',*,*,#228,.F.);
#193=ORIENTED_EDGE('',*,*,#232,.T.);
#194=ORIENTED_EDGE('',*,*,#233,.F.);
#195=ORIENTED_EDGE('',*,*,#232,.F.);
#196=ORIENTED_EDGE('',*,*,#226,.F.);
#197=ORIENTED_EDGE('',*,*,#233,.T.);
#198=ORIENTED_EDGE('',*,*,#234,.F.);
#199=ORIENTED_EDGE('',*,*,#230,.T.);
#200=ORIENTED_EDGE('',*,*,#225,.F.);
#201=ORIENTED_EDGE('',*,*,#234,.T.);
#202=ORIENTED_EDGE('',*,*,#231,.T.);
#203=ORIENTED_EDGE('',*,*,#235,.F.);
#204=ORIENTED_EDGE('',*,*,#235,.T.);
#205=ORIENTED_EDGE('',*,*,#222,.F.);
#206=ORIENTED_EDGE('',*,*,#223,.F.);
#207=VERTEX_POINT('',#342);
#208=VERTEX_POINT('',#344);
#209=VERTEX_POINT('',#347);
#210=VERTEX_POINT('',#348);
#211=VERTEX_POINT('',#351);
#212=VERTEX_POINT('',#353);
#213=VERTEX_POINT('',#356);
#214=VERTEX_POINT('',#358);
#215=VERTEX_POINT('',#361);
#216=VERTEX_POINT('',#364);
#217=VERTEX_POINT('',#367);
#218=VERTEX_POINT('',#370);
#219=VERTEX_POINT('',#373);
#220=VERTEX_POINT('',#377);
#221=VERTEX_POINT('',#381);
#222=EDGE_CURVE('',#207,#207,#236,.T.);
#223=EDGE_CURVE('',#208,#208,#237,.T.);
#224=EDGE_CURVE('',#209,#209,#238,.T.);
#225=EDGE_CURVE('',#211,#211,#239,.T.);
#226=EDGE_CURVE('',#212,#212,#240,.T.);
#227=EDGE_CURVE('',#213,#213,#241,.T.);
#228=EDGE_CURVE('',#214,#214,#242,.T.);
#229=EDGE_CURVE('',#215,#215,#243,.T.);
#230=EDGE_CURVE('',#216,#216,#244,.T.);
#231=EDGE_CURVE('',#217,#217,#245,.T.);
#232=EDGE_CURVE('',#218,#218,#246,.T.);
#233=EDGE_CURVE('',#219,#219,#247,.T.);
#234=EDGE_CURVE('',#220,#220,#248,.T.);
#235=EDGE_CURVE('',#221,#221,#249,.T.);
#236=CIRCLE('',#251,2.625);
#237=CIRCLE('',#252,2.625);
#238=CIRCLE('',#254,3.5);
#239=CIRCLE('',#256,5.);
#240=CIRCLE('',#257,5.);
#241=CIRCLE('',#259,5.5);
#242=CIRCLE('',#260,5.5);
#243=CIRCLE('',#262,3.5);
#244=CIRCLE('',#264,6.45);
#245=CIRCLE('',#266,3.9624);
#246=CIRCLE('',#268,6.45);
#247=CIRCLE('',#270,6.45);
#248=CIRCLE('',#273,6.45);
#249=CIRCLE('',#276,3.9624);
#250=AXIS2_PLACEMENT_3D('',#340,#280,#281);
#251=AXIS2_PLACEMENT_3D('',#341,#282,#283);
#252=AXIS2_PLACEMENT_3D('',#343,#284,#285);
#253=AXIS2_PLACEMENT_3D('',#345,#286,#287);
#254=AXIS2_PLACEMENT_3D('',#346,#288,#289);
#255=AXIS2_PLACEMENT_3D('',#349,#290,#291);
#256=AXIS2_PLACEMENT_3D('',#350,#292,#293);
#257=AXIS2_PLACEMENT_3D('',#352,#294,#295);
#258=AXIS2_PLACEMENT_3D('',#354,#296,#297);
#259=AXIS2_PLACEMENT_3D('',#355,#298,#299);
#260=AXIS2_PLACEMENT_3D('',#357,#300,#301);
#261=AXIS2_PLACEMENT_3D('',#359,#302,#303);
#262=AXIS2_PLACEMENT_3D('',#360,#304,#305);
#263=AXIS2_PLACEMENT_3D('',#362,#306,#307);
#264=AXIS2_PLACEMENT_3D('',#363,#308,#309);
#265=AXIS2_PLACEMENT_3D('',#365,#310,#311);
#266=AXIS2_PLACEMENT_3D('',#366,#312,#313);
#267=AXIS2_PLACEMENT_3D('',#368,#314,#315);
#268=AXIS2_PLACEMENT_3D('',#369,#316,#317);
#269=AXIS2_PLACEMENT_3D('',#371,#318,#319);
#270=AXIS2_PLACEMENT_3D('',#372,#320,#321);
#271=AXIS2_PLACEMENT_3D('',#374,#322,#323);
#272=AXIS2_PLACEMENT_3D('',#375,#324,#325);
#273=AXIS2_PLACEMENT_3D('',#376,#326,#327);
#274=AXIS2_PLACEMENT_3D('',#378,#328,#329);
#275=AXIS2_PLACEMENT_3D('',#379,#330,#331);
#276=AXIS2_PLACEMENT_3D('',#380,#332,#333);
#277=AXIS2_PLACEMENT_3D('',#382,#334,#335);
#278=AXIS2_PLACEMENT_3D('',#383,#336,#337);
#279=AXIS2_PLACEMENT_3D('',#384,#338,#339);
#280=DIRECTION('',(0.,0.,1.));
#281=DIRECTION('',(1.,0.,0.));
#282=DIRECTION('',(1.,0.,0.));
#283=DIRECTION('',(0.,1.,-6.12323399573677E-17));
#284=DIRECTION('',(-1.,0.,0.));
#285=DIRECTION('',(0.,0.,1.));
#286=DIRECTION('',(1.,0.,0.));
#287=DIRECTION('',(0.,0.,-1.));
#288=DIRECTION('',(-1.,9.75781955236959E-16,8.33952128874248E-32));
#289=DIRECTION('',(-9.91270557701033E-16,-1.,0.));
#290=DIRECTION('',(-1.,0.,0.));
#291=DIRECTION('',(-2.9167630924505E-17,0.,1.));
#292=DIRECTION('',(1.,0.,0.));
#293=DIRECTION('',(0.,0.,-1.));
#294=DIRECTION('',(-1.,0.,0.));
#295=DIRECTION('',(0.,0.,1.));
#296=DIRECTION('',(1.,-3.08395284618099E-16,-3.56653693405044E-32));
#297=DIRECTION('',(3.46944695195361E-16,1.,7.7098821154527E-17));
#298=DIRECTION('',(-1.,0.,0.));
#299=DIRECTION('',(0.,0.,-1.));
#300=DIRECTION('',(1.,3.73812466203756E-16,0.));
#301=DIRECTION('',(-6.30808536718839E-16,1.,0.));
#302=DIRECTION('',(1.,9.25510880687479E-16,-6.03382078600628E-16));
#303=DIRECTION('',(-6.30808536718839E-16,1.,7.21435093978995E-17));
#304=DIRECTION('',(-1.,0.,0.));
#305=DIRECTION('',(0.,0.,1.));
#306=DIRECTION('',(1.,4.20466216476373E-16,-9.59727127074618E-32));
#307=DIRECTION('',(-4.33680868994202E-16,1.,-2.10233108238185E-16));
#308=DIRECTION('',(1.,0.,0.));
#309=DIRECTION('',(0.,0.,-1.));
#310=DIRECTION('',(-1.,0.,0.));
#311=DIRECTION('',(0.,1.,0.));
#312=DIRECTION('',(1.,0.,0.));
#313=DIRECTION('',(0.,0.,-1.));
#314=DIRECTION('',(1.,0.,0.));
#315=DIRECTION('',(0.,1.,0.));
#316=DIRECTION('',(1.,0.,0.));
#317=DIRECTION('',(0.,0.,-1.));
#318=DIRECTION('',(1.,0.,0.));
#319=DIRECTION('',(0.,1.,0.));
#320=DIRECTION('',(-1.,-1.99221760089211E-16,-2.07037326268686E-16));
#321=DIRECTION('',(0.,1.,-7.96887040356847E-16));
#322=DIRECTION('',(1.,-2.42816111546233E-16,2.19384796377424E-32));
#323=DIRECTION('',(0.,1.,-1.21408055773116E-16));
#324=DIRECTION('',(-1.,0.,0.));
#325=DIRECTION('',(0.,1.,0.));
#326=DIRECTION('',(1.,0.,0.));
#327=DIRECTION('',(0.,0.,-1.));
#328=DIRECTION('',(1.,0.,0.));
#329=DIRECTION('',(0.,0.,-1.));
#330=DIRECTION('',(-1.,0.,0.));
#331=DIRECTION('',(7.75622797147959E-18,0.,1.));
#332=DIRECTION('',(1.,1.17145536458252E-15,-1.17145536458253E-15));
#333=DIRECTION('',(-1.75118461132325E-15,0.,-1.));
#334=DIRECTION('',(-1.,-1.17145536458252E-15,1.17145536458253E-15));
#335=DIRECTION('',(-8.75592305661623E-16,1.,-2.34291072916505E-15));
#336=DIRECTION('',(1.,1.17145536458252E-15,-1.17145536458253E-15));
#337=DIRECTION('',(-1.17267306976032E-15,1.,-2.34291072916505E-15));
#338=DIRECTION('',(-1.,0.,0.));
#339=DIRECTION('',(0.,0.,1.));
#340=CARTESIAN_POINT('',(0.,0.,0.));
#341=CARTESIAN_POINT('',(39.3,25.,0.));
#342=CARTESIAN_POINT('',(39.3,27.625,-1.6073489238809E-16));
#343=CARTESIAN_POINT('',(20.4,25.,0.));
#344=CARTESIAN_POINT('',(20.4,25.,2.625));
#345=CARTESIAN_POINT('',(24.2,25.,0.));
#346=CARTESIAN_POINT('',(17.,25.,-1.14633363740018E-13));
#347=CARTESIAN_POINT('',(17.,21.5,-1.14633363740018E-13));
#348=CARTESIAN_POINT('',(19.1030121665965,25.,-1.15369179618852E-13));
#349=CARTESIAN_POINT('',(18.5021515475689,25.,-1.15369179618852E-13));
#350=CARTESIAN_POINT('',(2.44999999999999,25.,-1.11314136326907E-13));
#351=CARTESIAN_POINT('',(2.44999999999999,25.,-5.00000000000012));
#352=CARTESIAN_POINT('',(19.,25.,-1.15754673724625E-13));
#353=CARTESIAN_POINT('',(19.,25.,4.99999999999988));
#354=CARTESIAN_POINT('',(2.99999999999999,25.,-1.15754673724625E-13));
#355=CARTESIAN_POINT('',(31.7,25.,-1.19235415872494E-13));
#356=CARTESIAN_POINT('',(31.7,25.,-5.50000000000012));
#357=CARTESIAN_POINT('',(20.2,25.,-1.15369179618852E-13));
#358=CARTESIAN_POINT('',(20.2,30.5,-1.15369179618852E-13));
#359=CARTESIAN_POINT('',(20.2,25.,-1.12296521968587E-13));
#360=CARTESIAN_POINT('',(-6.93889390390723E-15,25.,-1.14633363740018E-13));
#361=CARTESIAN_POINT('',(-6.93889390390723E-15,25.,3.49999999999989));
#362=CARTESIAN_POINT('',(1.79999999999999,25.,-1.14633363740018E-13));
#363=CARTESIAN_POINT('',(-6.93889390390723E-15,25.,-1.11314136326907E-13));
#364=CARTESIAN_POINT('',(-6.93889390390723E-15,25.,-6.45000000000011));
#365=CARTESIAN_POINT('',(-6.93889390390723E-15,19.5,5.49999999999988));
#366=CARTESIAN_POINT('',(31.7,25.,1.70460691975905E-14));
#367=CARTESIAN_POINT('',(31.7,25.,-3.96239999999998));
#368=CARTESIAN_POINT('',(31.7,18.95,-6.05000000000012));
#369=CARTESIAN_POINT('',(20.2,25.,-1.14586097659116E-13));
#370=CARTESIAN_POINT('',(20.2,25.,-6.45000000000011));
#371=CARTESIAN_POINT('',(20.2,17.905,-7.09500000000012));
#372=CARTESIAN_POINT('',(19.,25.,-1.1022925820855E-13));
#373=CARTESIAN_POINT('',(19.,31.45,-1.15369179618852E-13));
#374=CARTESIAN_POINT('',(19.,25.,-1.14586097659116E-13));
#375=CARTESIAN_POINT('',(19.,17.905,7.09499999999988));
#376=CARTESIAN_POINT('',(0.999999999999993,25.,-1.11314136326907E-13));
#377=CARTESIAN_POINT('',(0.999999999999993,25.,-6.45000000000011));
#378=CARTESIAN_POINT('',(-6.93889390390723E-15,25.,-1.11314136326907E-13));
#379=CARTESIAN_POINT('',(0.999999999999993,25.,-1.11314136326907E-13));
#380=CARTESIAN_POINT('',(39.3,25.,8.1430084267633E-15));
#381=CARTESIAN_POINT('',(39.3,25.,-3.96239999999999));
#382=CARTESIAN_POINT('',(25.50018,25.,2.43088815960365E-14));
#383=CARTESIAN_POINT('',(39.3,25.,8.14300842676328E-15));
#384=CARTESIAN_POINT('',(20.4,25.,-1.15937158748106E-13));
#385=MECHANICAL_DESIGN_GEOMETRIC_PRESENTATION_REPRESENTATION('',(#32,#23,
#24,#25,#26,#27,#28,#29,#30),#386);
#386=(
GEOMETRIC_REPRESENTATION_CONTEXT(3)
GLOBAL_UNCERTAINTY_ASSIGNED_CONTEXT((#387))
GLOBAL_UNIT_ASSIGNED_CONTEXT((#393,#389,#388))
REPRESENTATION_CONTEXT('n 02 060 611x 001nxc001-01',
'TOP_LEVEL_ASSEMBLY_PART')
);
#387=UNCERTAINTY_MEASURE_WITH_UNIT(LENGTH_MEASURE(2.E-5),#393,
'DISTANCE_ACCURACY_VALUE','Maximum Tolerance applied to model');
#388=(
NAMED_UNIT(*)
SI_UNIT($,.STERADIAN.)
SOLID_ANGLE_UNIT()
);
#389=(
CONVERSION_BASED_UNIT('DEGREE',#391)
NAMED_UNIT(#390)
PLANE_ANGLE_UNIT()
);
#390=DIMENSIONAL_EXPONENTS(0.,0.,0.,0.,0.,0.,0.);
#391=PLANE_ANGLE_MEASURE_WITH_UNIT(PLANE_ANGLE_MEASURE(0.0174532925),#392);
#392=(
NAMED_UNIT(*)
PLANE_ANGLE_UNIT()
SI_UNIT($,.RADIAN.)
);
#393=(
LENGTH_UNIT()
NAMED_UNIT(*)
SI_UNIT(.MILLI.,.METRE.)
);
ENDSEC;
END-ISO-10303-21;
